Song name
# A B C D E F G H I J K L M N O P Q R S T U V W X Y Z

Misc Unsigned Bands - Killtrox And The Motherships - Area Fifty Done tab

This took me about 3 days to tab out, it's about 98% correct, mostly rhythmic problems, 
but it's pretty much all here. good luck playing it.


Yes, the tuning is AGCFAD

                         PM   PM PM     PM   PM PM PM   PM   PM PM
     W                   S  S S  S  S S S  S S  S  S  S S  S S  S
D||-------------------|--------------------------------------------|
A||-------------------|--------------------------------------------|
F||-------------------|--------------------------------------------|
C||--3----------------|--------------------------------------------|
G||--2----------------|--1----1--1------1----1--1--1----1----1--1--|
A||--0----------------|--------------------------------------------|


                      PM PM PM PM   PM     PM PM PM PM PM PM   PM PM PM
  W                   S  S  S  S  S S  S S S  S  S  S  S  S  S S  S  S
-------------------|----------------------------------------------------|
-------------------|----------------------------------------------------|
-------------------|----------------------------------------------------|
--3----------------|----------------------------------------------------|
--2----------------|--1--1--1--1----1------1--1--1--1--1--1----1--1--1--|
--0----------------|----------------------------------------------------|


                      PM   PM   PM   PM   PM   PM PM PM PM PM PM
  W                   S  S S  S S  S S  S S  S S  S  S  S  S  S
-------------------|---------------------------------------------|
-------------------|---------------------------------------------|
-------------------|---------------------------------------------|
--3----------------|---------------------------------------------|
--2----------------|--1----1----1----1----1----1--1--1--1--1--1--|
--0----------------|---------------------------------------------|


                      PM PM PM PM PM   PM PM PM   PM PM PM   PM PM
  W                   S  S  S  S  S  S S  S  S  S S  S  S  S S  S
-------------------|-----------------------------------------------|
-------------------|-----------------------------------------------|
-------------------|-----------------------------------------------|
--3----------------|-----------------------------------------------|
--2----------------|--1--1--1--1--1----1--1--1----1--1--1----1--1--|
--0----------------|-----------------------------------------------|


  The ghost notes are hammered, but they don't NEED to be played
  S   S   S  S   S   S  S   S   S  S  E
-----------------------------------------|
-----------------------------------------|
-----------------------------------------|
--0h-10------0h-12------0h-13------0h-9--|
--------(13)-------(15)-------(16)-------|
-----------------------------------------|


  PM PM PM   PM PM PM   PM   PM PM PM PM   PM
  S  S  S  S S  S  S  S S  S S  S  S  S  S S     S S  S  S S S S S S S  S S
----------------------------------------------|-----------------------------|
----------------------------------------------|----3h-4p-3-----------3h-4---|
----------------------------------------------|-----------------------------|
----------------------------------------------|-----------------------------|
----------------------------------------------|--6---------6-------6--------|
--6--0--0----0--0--0----0----0--0--0--0----0--|--------------4-3-4----------|


  PM PM PM   PM PM PM   PM PM PM PM   PM   PM
  S  S  S  S S  S  S  S S  S  S  S  S S  S S
----------------------------------------------|
----------------------------------------------|
----------------------------------------------|
----------------------------------------------|
----------------------------------------------|
--6--3--3----3--3--3----3--3--3--3----3----3--|


  S   S   S  S   S   S  S   S   S  S  E
-----------------------------------------|
-----------------------------------------|
-----------------------------------------|
--0h-10------0h-12------0h-13------0h-9--|
--------(13)-------(15)-------(16)-------|
-----------------------------------------|


  PM PM PM   PM PM PM   PM PM PM PM   PM   PM
  S  S  S  S S  S  S  S S  S  S  S  S S  S S     S S  S  S S S S S S S  S S
----------------------------------------------|-----------------------------|
----------------------------------------------|----3h-4p-3-----------3h-4---|
----------------------------------------------|-----------------------------|
----------------------------------------------|-----------------------------|
----------------------------------------------|--6---------6-------6--------|
--6--0--0----0--0--0----0--0--0--0----0----0--|--------------4-3-4----------|


  PM PM PM   PM PM PM   PM   PM PM PM PM PM PM
  S  S  S  S S  S  S  S S  S S  S  S  S  S  S     H.
-----------------------------------------------|--2------------|
-----------------------------------------------|--2------------|
-----------------------------------------------|--6------------|
-----------------------------------------------|--2------------|
-----------------------------------------------|--4------------|
--6--3--3----3--3--3----3----3--3--3--3--3--3--|--5------------|


                           T  T            T
  Q    Q     Q       S  S  S  S   S  S  S  S
--1----3-----7----|--------------------------|
--2----4-----8----|--------------------------|
--4----6----10----|-----------------12----18-|
--4----6----10----|----11----17p-10----16----|
------------------|--9----15-----------------|
------------------|--------------------------|


  PM PM PM PM
  S  S  S  S  S   S S   S  S  S  S  S S  S   S S  S   S S S
------------------------------------------------------------|
------------------------------------------------------------|
-----------------------------------------------0h-7h-13-----|
--------------------------------------0h-7h-13--------------|
--------------------7h-13-14p-8---------------------------3-|
--7--7--7--7--7h-13-------------14p-8---------------------6-|


  S S S S S S S S S S S S S S S S S S S S    S E  S S E  S S S S S
--------------------------------5---------|------------------------|
------------------------------2---3-------|------------------------|
----------------------------1-------2-----|------------------------|
--------------------------4-----------5---|------------------------|
--3-3-3---3-3-3-3---3---3---------------3-|-------4------4---4-----|
--6-6-6---6-6-6-6---6-2-------------------|--2------2------2---2---|


  E  S S E  S S S S S S S S E     S S E  E  S S E  S S S S E
-------------------------------|------------------------------|
-------------------------------|------------------------------|
-------------------------------|------------------------------|
-------------------------------|------------------------------|
-----4------4-----------4------|--4---------4------4----------|
-------2------2---2---2---2----|----2---------2------2---2----|


  3 X's is a hit with the right hand, 2 X's is a hit with the left
  S  S S S S S S S S S S S S S S S S S S S S S S S    S S S S S S S S S S
---------------------------------------------------|------------5---------|
--x------x-----x---x-----x-----x---x---x-----x-----|----------2---3-------|
--x------x-----x---x-----x-----x---x---x-----x-----|--------1-------2-----|
--x--x-x-x-x-x-x-x-x-x-x-x-x-x-x-x-x-x-x-x-x-x-x---|------4-----------5---|
-----x-x---x-x---x---x-x---x-x---x---x---x-x---x---|----3---------------3-|
---------------------------------------------------|--2-------------------|


  S E  S S E  S S S S S    E  S S E  S S S S S S S S E
------------------------|-------------------------------|
------------------------|-------------------------------|
------------------------|-------------------------------|
------------------------|-------------------------------|
-------4------4---4-----|-----4------4-----------4------|
--2------2------2---2---|-------2------2---2---2---2----|

                                 This part is hard to see, just look closely for the 1's
  S S E  E  S S E  S S S S E     S S S S S S S S S S S S S S S S
------------------------------|----------------------------------|
------------------------------|----------------------------------|
------------------------------|----------------------------------|
------------------------------|----------------------------------|
--4---------4------4----------|----------------------------------|
----2---------2------2---2----|--1-1-1-L-1-1-1-L-L-L-L-1-L-L-L-1-|


  S S S S S S S S S S S S S S S S    S S S S S S S S S S S S S S S S
----------------------------------|----------------------------------|
----------------------------------|----------------------------------|
----------------------------------|----------------------------------|
----------------------------------|----------------------------------|
----------------------------------|----------------------------------|
--1-1-L-L-1-1-1-1-1-1-1-1-L-L-L-1-|--L-L-L-1-1-1-1-1-1-1-1-L-L-L-1-L-|


  PM PM PM PM                        T  T            T  T            T
  S  S  S  S  S   S S   S S   S   S  S  S S   S   S  S  S S   S   S  S  S   S
-----------------------------------------------------------------------14h-17-|
----------------------------------------------------------7h-10h-13-----------|
-------------------------------------------------------17-----------20--------|
------------------------------------------7h-10h-13-15------------------------|
--------------------7h-13--------------17-------------------------------------|
--7--7--7--7--7h-13-------7h-10h-13-15----------------------------------------|


  S S E  Q       S   S   S  S   S   S  S   S   S  S  E
--L-----------|-----------------------------------------|
--------------|-----------------------------------------|
--------------|-----------------------------------------|
--------------|--0h-10------0h-12------0h-13------0h-9--|
--------------|--------(13)-------(15)-------(16)-------|
--------------|-----------------------------------------|


  PM PM PM   PM PM PM   PM   PM PM PM PM   PM
  S  S  S  S S  S  S  S S  S S  S  S  S  S S     S S  S  S S S S S S S  S S
----------------------------------------------|-----------------------------|
----------------------------------------------|----3h-4p-3-----------3h-4---|
----------------------------------------------|-----------------------------|
----------------------------------------------|-----------------------------|
----------------------------------------------|--6---------6-------6--------|
--0--0--0----0--0--0----0----0--0--0--0----0--|--------------4-3-4----------|


  PM PM PM   PM PM PM   PM   PM PM PM PM   PM
  S  S  S  S S  S  S  S S  S S  S  S  S  S S
----------------------------------------------|
----------------------------------------------|
----------------------------------------------|
----------------------------------------------|
----------------------------------------------|
--3--3--3----3--3--3----3----3--3--3--3----3--|


  S   S   S  S   S   S  S   S   S  S  E
-----------------------------------------|
-----------------------------------------|
-----------------------------------------|
--0h-10------0h-12------0h-13------0h-9--|
--------(13)-------(15)-------(16)-------|
-----------------------------------------|


  PM PM PM   PM PM PM   PM   PM PM PM PM   PM
  S  S  S  S S  S  S  S S  S S  S  S  S  S S     S S  S  S S S S S S S  S S
----------------------------------------------|-----------------------------|
----------------------------------------------|----3h-4p-3-----------3h-4---|
----------------------------------------------|-----------------------------|
----------------------------------------------|-----------------------------|
----------------------------------------------|--6---------6-------6--------|
--0--0--0----0--0--0----0----0--0--0--0----0--|--------------4-3-4----------|


  PM PM PM   PM PM PM   PM   PM PM PM PM   PM
  S  S  S  S S  S  S  S S  S S  S  S  S  S S
----------------------------------------------|
----------------------------------------------|
----------------------------------------------|
----------------------------------------------|
----------------------------------------------|
--3--3--3----3--3--3----3----3--3--3--3----3--|


   S  S  S  S  S  S  S  S  S S   S S   S S   S  S
--10p-9-------10p-9----------9h-10-------9h-10-----|
--------11p-8-------11p-8-11-------8h-11-------11p-|
---------------------------------------------------|
---------------------------------------------------|
---------------------------------------------------|
---------------------------------------------------|


  S S  S S  S  S S  S S   S S   S  Q        W
----------------------------9h-10--L\----|-------------------|
--8-------------------8h-11--------------|-------------------|
----7p-6---------6h-7--------------------|-------------------|
---------8p-5h-8-------------------------|-------------------|
-----------------------------------------|-------------------|
-----------------------------------------|-------------------|


                                                          Not a hundred percent sure on 
the taps
                    PM PM PM PM                           T      T
  S S S S S S Q     S  S  S  S      E.   E.   E  S  S  S  S  S   S  S  S
--------------------------------|----------------------------------------|
--------------------------------|----------------0h-8----24p-8h-23p-8p-0-|
--------------------------------|---------------------11-----------------|
--------------------------------|--13----8---12--------------------------|
--------------------------------|----------------------------------------|
--0-0-0-0-0-0-4b----0--0--0--0--|--15---10---14--------------------------|


                   PM PM PM PM        PM     PM
  S S S S S S Q    S  S  S  S      E  S   E  S   E  S  S  S  S  S   S  S  S
-------------------------------|--------------------------------------------|
-------------------------------|--------------------0h-8----24p-8h-23p-8p-0-|
-------------------------------|-------------------------11-----------------|
-------------------------------|--13------8-----12--------------------------|
--------------3----------------|--------------------------------------------|
--0-0-0-0-0-0-6----0--0--0--0--|--15--0--10--0--14--------------------------|


                    PM PM PM PM
  S S S S S S Q     S  S  S  S      E.   E.   E  E   E  Q
--------------------------------|----------------------------|
--------------------------------|----------------------------|
--------------------------------|----------------------------|
--------------------------------|--13----8---12--L\----------|
--------------------------------|----------------------------|
--0-0-0-0-0-0-4b----0--0--0--0--|--15---10---14--L\----------|


                      Iffy about this too
  PM PM PM
  S  S  S  S E  E  E  E  E  E     E  E   E   E   E  E   E  E
-------------------------------|------------------------------|
-------------------------------|------------------------------|
-------------------------------|--6--4------12--10-----11-----|
----------------------5--3--4--|--------10--------------------|
-------------------3-----------|------------------------------|
--0--0--0--0-2--4--------------|------------------------------|


                                    Not sure what note it is, but it was a good guess
                                    PM PM    PM
   E  E   E   E   E   E   E   E     E  E  E  E
-----------------18--20---L\-----|--------------|
---------18--19------------------|--------------|
--12-----------------------------|--------------|
---------------------------------|--------------|
---------------------------------|--0--0-----0--|
---------------------------------|--------------|


  S S S S S S S S S S S S S S S S    H
----------------------------------|-----------|
--x-----x-----x---x-----x-----x---|-----------|
--x-----x-----x---x-----x-----x---|-----------|
--x-x-x-x-x-x-x-x-x-x-x-x-x-x-x---|-----------|
----x-x---x-x---x---x-x---x-x-----|-----------|
----------------------------------|-----------|


  S   S   S  S   S   S  S   S   S  S  E
-----------------------------------------|
-----------------------------------------|
-----------------------------------------|
--0h-10------0h-12------0h-13------0h-9--|
--------(13)-------(15)-------(16)-------|
-----------------------------------------|


  PM PM PM   PM PM PM   PM   PM PM PM PM   PM
  S  S  S  S S  S  S  S S  S S  S  S  S  S S     S S  S  S S S S S S S  S S
----------------------------------------------|-----------------------------|
----------------------------------------------|----3h-4p-3-----------3h-4---|
----------------------------------------------|-----------------------------|
----------------------------------------------|-----------------------------|
----------------------------------------------|--6---------6-------6--------|
--0--0--0----0--0--0----0----0--0--0--0----0--|--------------4-3-4----------|


  PM PM PM   PM PM PM   PM   PM PM PM PM   PM
  S  S  S  S S  S  S  S S  S S  S  S  S  S S
----------------------------------------------|
----------------------------------------------|
----------------------------------------------|
----------------------------------------------|
----------------------------------------------|
--3--3--3----3--3--3----3----3--3--3--3----3--|


  S   S   S  S   S   S  S   S   S  S  E
-----------------------------------------|
-----------------------------------------|
-----------------------------------------|
--0h-10------0h-12------0h-13------0h-9--|
--------(13)-------(15)-------(16)-------|
-----------------------------------------|


  PM PM PM   PM PM PM   PM   PM PM PM PM   PM
  S  S  S  S S  S  S  S S  S S  S  S  S  S S      S S  S  S  S S S S  S S  S S
----------------------------------------------|--------------------------------|
----------------------------------------------|-----7h-8p-7-------------7h-8---|
----------------------------------------------|--------------------------------|
----------------------------------------------|--------------------------------|
----------------------------------------------|--10---------10-------10--------|
--0--0--0----0--0--0----0----0--0--0--0----0--|----------------8-7-8-----------|


  PM PM PM   PM PM PM   PM   PM PM PM PM   PM
  S  S  S  S S  S  S  S S  S S  S  S  S  S S     H.
----------------------------------------------|--2------------|
----------------------------------------------|--2------------|
----------------------------------------------|--6------------|
----------------------------------------------|--2------------|
----------------------------------------------|--4------------|
--3--3--3----3--3--3----3----3--3--3--3----3--|--5------------|


  S S S S S S S S S S S S Q       W
-------------------------------|-------------------|
-------------------------------|-------------------|
-------------------------------|-------------------|
-------------------------------|-------------------|
-------------------------------|-------------------|
--1-1-1-L-1-1-1-L-1-1-1-L-L----|--L----------------|


                    Hit it really hard
                    ^  PM PM PM PM PM         PM PM PM PM PM PM PM PM PM
  S S S S S S S S   E  S  S  S  S  S  S    E  S  S  S  S  E  E  S  E  E  S
----------------------------------------|----------------------------------|
------------------<>2-------------------|----------------------------------|
------------------<>2-------------------|----------------------------------|
------------------<>2-------------------|----------------------------------|
----------------------------------------|-----------------0--0--0--0--0----|
--0-0-0-0-0-0-0-0------0--0--0--0--0----|-----0--0--0--0--0--0--0--0--0----|


                            NH PM PM PM
  Q    Q    Q    Q          E  S  S  S  E  S S S S  S S S S S
----------------------|----------------------------------------|
----------------------|----------------------------------------|
--6----3----4----5----|--<>12--------------0-6-----------------|
--4----1----2----3----|----12------------------8---------------|
--4----1----2----3----|--<>12--------------------9s-8-L--------|
--4----1----2----3----|--------0--0--0------------------6-L-6\-|


    lightly put your finger on the 2nd fret and slide to the 5th
    NH   NH   NH   NH   NH   NH   NH   NH
    S    S    S    S    S    S    S    S E  S S S S S S
--------------------------------------------------------|
--------------------------------------------------------|
--------------------------------------------------------|
--------------------------------------------------------|
--------------------------------------------------------|
--<>2s-<>2s-<>3s-<>3s-<>4s-<>4s-<>5s-<>5-6--0-0-0-0-0---|


                ^    ^  PM PM
  E  S S E  S   E    E  E  E  S    E  S  S  E  S  S  E  S  S  E  S S
--------------------------------|----------13-------14-------12-------|
-----6-L-L--L-<>3--<>3----------|-----5h-7-12--6h-8-13--4h-6-11-------|
-------8-L--L-<>3--<>3----------|-------------------------------------|
---------9--L-<>3--<>3----------|--------------------------------2----|
------------------------0--0----|-------------------------------------|
------------------------0--0----|----------------------------------3p-|


                                  ^                           ^    ^  PM PM
  E  S S S S S S S S S S S S      E  S S S S S E.  S S S E    E    E  E  E  S
---------------8-9-----------|------------------------------------------------|
-------------6-----7---------|---------------------6-L-L-L--<>3--<>3----------|
-----------5---------6-------|--<>6------------------8-L-L--<>3--<>3----------|
---------8-------------9-----|--<>6--------------------9-L--<>3--<>3----------|
-------7-----------------8---|--<>6-----------------------------------0--0----|
--0--6---------------------7-|-------0-0-0-0-0------------------------0--0----|


                                             PM   PM   PM
                                             |----3----|
  Q    Q    Q    Q       W                   Q    Q    Q    H
----------------------|-------------------|--------------------------||
----------------------|-------------------|--------------------------||
--6----3----4----5----|-------------------|--------------------------||
--4----1----2----3----|-------------------|--------------------------||
--4----1----2----3----|-------------------|--0----0----0----L--------||
--4----1----2----3----|-------------------|--0----0----0----L--------||




Duration Legend
---------------
W - whole
H - half
Q - quarter
E - 8th
S - 16th
T - 32nd
X - 64th
. - note dotted
|-n-|  - n-tuplets


Tablature Legend
----------------
L - tied note
x - dead note
g - grace note
(n) - ghost note
> - accentuded note
NH - natural harmonic
AH - artificial harmonic
TH - tapped harmonic
SH - semi harmonic
PH - pitch harmonic
h - hammer on
p - pull off
b - bend
br - bendRelease
pb - preBend
pbr - preBendRelease
brb - bendReleaseBend
\n/ - tremolo bar dip
\n - tremolo bar dive
-/n - tremolo bar Release up
/n\ - tremolo bar inverted dip
/n - tremolo bar return
-\n - tremolo bar Release down
S - shift slide
s - legato slide
/ -  slide into from below or out of upwards
\ -  slide into from above or out of downwards
~ - vibrato
W - wide vibrato
tr - trill
TP - tremolo picking
T - tapping
S - slap
P - pop
< - fade in
^ - brush up
v - brush down
Tap to rate this tab
 
# A B C D E F G H I J K L M N O P Q R S T U V W X Y Z