Song name
# A B C D E F G H I J K L M N O P Q R S T U V W X Y Z

Misc Unsigned Bands - Disfigured Elegance - Winds Of Desolation tab

Nobody has posted any tabs for Disfigured Elegance as far as I know and I would like to
be the first. This is probably one of the best songs from the album The Last Disease.
Unfortunately, it's also their only album as the singer Mathieu 'Matt' Paquette past 
away over a year ago.
This is also my first tab.
Enjoy!

C#|------------------------------------------------|
G#|------------------------------------------------|
E |------------------------------------------------|
B |------------------------------------------------|
F#|-------------------0h5h7h8-----0h4h5h7----------|
B |12/---0-5h7-0-8-0-----------0-----------0--0h5h7|

               PM  PM          PM          PM
C#|----------------------------------|
G#|----------------------------------|
E |----------------------------------|
B |--------8-7-5---------5-10-----10-|
F#|----5---------8-4-5-7------8-7----|
B |8-8---8---------------------------|
  PM--|  PM        PM---|

C#|------------------------------------------|
G#|------------------------------------------|
E |------------------------------------------|
B |------------------------------------------|
F#|-------------0h5h7h8-----0h4h5h7----------|
B |0-5h7-0-8-0-----------0-----------0--0h5h7|
  PM    PM  PM          PM          PM

C#|-------------------------------------|
G#|-------------------------------------|
E |-------------------------------------|
B |-------------------------------------|
F#|0-0-0---0-0-0-------0-0----0-0-0-0---|
B |0-0-0---0-0-0-------0-0----0-0-0-0---|
  PM------------------------------------|

C#|-----------------------------------------|
G#|-----------------------------------------|
E |-----------------------------------------|
B |-----------------------------------------|
F#|------------0h5h7h8-----0h4h5h7----------|
B |0-5h7-0-8-0----------0-----------0--0h5h7|
  PM    PM  PM         PM          PM

C#|------------------------------------|
G#|------------------------------------|
E |------------------------------------|
B |--------8-7-5---------5-10-----10---|
F#|----5---------8-4-5-7------8-7------|
B |8-8---8-----------------------------|
  PM--| PM        PM-------------------|

C#|------------------------------------------|
G#|------------------------------------------|
E |------------------------------------------|
B |------------------------------------------|
F#|------------0h5h7h8-----0h4h5h7-----------|
B |0-5h7-0-8-0----------0-----------0--0h5h7-|
  PM    PM  PM         PM          PM

C#|------------------------------------------------------|
G#|------------------------------------------------------|
E |------------------------------------------------------|
B |------------------------------------------------------|
F#|0-0-0--0-0-0--0-0--0-0-0-0-0-0-0--0-0-0--0-0--0-0-0-0-|
B |0-0-0--0-0-0--0-0--0-0-0-0-0-0-0--0-0-0--0-0--0-0-0-0-|
  PM-----------------------------------------------------|

C#|--------------------------------------------------|
G#|3~------------------------------------------------|
E |2~------------------------------------------------|
B |0~-----------------*PICKSLIDE*--------------------|
F#|0~------------------------------------------------|
B |0~------------------------------------------------|

C#|----------------------------------------------------------------|----|-----|
G#|----------------------------------------------------------------|----|-----|
E |----------------------------------------------------------------|----|-----|
B |-----------------5h7------------5-------------------2-------3---|(x4)|-----|
F#|8-----7----8p7---------8---7h8--------8-----7-----3---3---7---7-|----|7~---|
B |--0-0---0-0----0-----0---0--------0-0---0-0---0-0-------0-------|----|-----|
    PM--| PM--|  PM    PM  PM       PM--| PM--| PM----------------------------|     PM

C#|--------------------------------------------------------|
G#|--------------------------------------------------------|
E |--------------------------------------------------------|
B |--------------------------------------------------------|
F#|0000----00000000-0-0-0-0-0--0--0000---00000000---0-0-0-0|
B |1111----11111111-1-1-1-1-1--1--1111---11111111---1-1-1-1|
  PM-------------------------------------------------------|


C#|----------------------------------------------|
G#|----------------------------------------------|
E |----------------------------------------------|
B |----------------------------------------------|
F#|0000----00000000-0-0-0-0-0--0--0000---00000000|
B |1111----11111111-1-1-1-1-1--1--1111---11111111|
  PM---------------------------------------------|


C#|-------------------------------------------------------------|
G#|-------------------------------------------------------------|
E |-------------------------------------------------------------|
B |-------------------------------------------------------------|(x2)
F#|00000----00000000-0-0-0-0-0--0---00000----00000000---0-0-0-0-|
B |00000----00000000-0-0-0-0-0--0---00000----00000000---0-0-0-0-|
  PM------------------------------------------------------------|

C#|----------------------------------------|
G#|----------------------------------------|
E |----------------------------------------|
B |0~~~~~~~--3~~~~~~~--8~~~~~~~--5~~~~~~~--|
F#|0~~~~~~~--3~~~~~~~--8~~~~~~~--5~~~~~~~--|
B |0~~~~~~~--3~~~~~~~--8~~~~~~~--5~~~~~~~--|

C#|-------------------------------------------------------------|
G#|-------------------------------------------------------------|
E |-------------------------------------------------------------|
B |-------------------------------------------------------------|
F#|00000----00000000-0-0-0-0-0--0---33333----33333333---3-3-3-3-|
B |00000----00000000-0-0-0-0-0--0---33333----33333333---3-3-3-3-|
  PM------------------------------------------------------------|

C#|-------------------------------------------------------------|
G#|-------------------------------------------------------------|
E |-------------------------------------------------------------|
B |-------------------------------------------------------------|
F#|88888----88888888-8-8-8-8-8--8---55555----55555555---5-5-5-5-|
B |88888----88888888-8-8-8-8-8--8---55555----55555555---5-5-5-5-|
  PM------------------------------------------------------------|

C#|-------------------------------------------|
G#|-------------------------------------------|
E |-------------------------------------------|
B |0~~~~~~~--3~~~~~~~--8~~~~~~~--5~~~~~~~-----|
F#|0~~~~~~~--3~~~~~~~--8~~~~~~~--5~~~~~~~----0|
B |0~~~~~~~--3~~~~~~~--8~~~~~~~--5~~~~~~~----0|
                                            PM

C#|-----------------------------------------|
G#|-----------------------------------------|
E |-----------------------------------------|
B |-----------------------------------------|
F#|------------0h5h7h8-----0h4h5h7----------|
B |0-5h7-0-8-0----------0-----------0--0h5h7|
  PM    PM  PM         PM          PM

C#|------------------------------------|
G#|------------------------------------|
E |------------------------------------|
B |--------8-7-5---------5-10-----10---|
F#|----5---------8-4-5-7------8-7------|
B |8-8---8-----------------------------|
  PM--| PM        PM-------------------|

C#|------------------------------------------|
G#|------------------------------------------|
E |------------------------------------------|
B |------------------------------------------|
F#|------------0h5h7h8-----0h4h5h7-----------|
B |0-5h7-0-8-0----------0-----------0--0h5h7-|
  PM    PM  PM         PM          PM

C#|------------------------------------------------------|
G#|------------------------------------------------------|
E |------------------------------------------------------|
B |------------------------------------------------------|
F#|0-0-0--0-0-0--0-0--0-0-0-0-0-0-0--0-0-0--0-0--0-0-0-0-|
B |0-0-0--0-0-0--0-0--0-0-0-0-0-0-0--0-0-0--0-0--0-0-0-0-|
  PM-----------------------------------------------------|

C#|--------------------------|
G#|--------------------------|
E |--------------------------|
B |--------------------------|
F#|0-0-0--0-0-0--0-0--0-0-0-0|
B |1-1-1--1-1-1--1-1--1-1-1-1|
  PM-------------------------|

C#|----------------------------------------------|
G#|----------------------------------------------|
E |----------------------------------------------|
B |----------------------------------------------|
F#|0000----00000000-0-0-0-0-0--0--0000---00000000|
B |1111----11111111-1-1-1-1-1--1--1111---11111111|
  PM---------------------------------------------|

C#|----------------------------------------------|
G#|----------------------------------------------|
E |----------------------------------------------|
B |----------------------------------------------|
F#|0000----00000000-0-0-0-0-0--0--0000---00000000|
B |1111----11111111-1-1-1-1-1--1--1111---11111111|
  PM---------------------------------------------|

C#|------------------------------------------------------------------------|
G#|------------------------------------------------------------------------|
E |------------------------------------------------------------------------|
B |------------------------------3---3------------------------------3-5-7--|
F#|5---------5-----------------7---7----5---------5---------------7--------|
B |--00--00----00--00---000000------------00--00----00--00-000000----------|
     PM----|  PM-------------|          PM-----|  PM-----------------------|

C#|------------------------------------------------------------------------|
G#|------------------------------------------------------------------------|
E |------------------------------------------------------------------------|
B |------------------------------3---3-------------------------------------|
F#|5---------5-----------------7---7----5-33--33--5-----------33--33-------|
B |--88--88----88--88---888888----------------------88--88----33--33-12/---|
     PM--- |   PM---|   PM---|            PM---|    PM---------------------|

C#|-----------------------------------------|
G#|-----------------------------------------|
E |-----------------------------------------|
B |1-0-0-0---------/3-2-1-0----------1-0-0-0|
F#|1-0-0-0----------------0----------1-0-0-0|
B |1-0-0-0----------------0----------1-0-0-0|

C#|--------------------------------------------------------|-----|-----|
G#|--------------------------------------------------------|-2nd-|-3rd-|
E |------------------------------------------------------x3|-----|-----|
B |1-0-0-0--------1-0-0-0--------1-0-0-0--------1-0-0-0----|0----|-----|
F#|1-0-0-0--0000--1-0-0-0--00-0--1-0-0-0--0000--1-0-0-0----|0----|-----|
B |1-0-0-0--0000--1-0-0-0--00-0--1-0-0-0--0000--1-0-0-0----|0----|12/--|
            PM-|           PM-|           PM-|
C#|----------------------------------------------------|
G#|----------------------------------------------------|
E |----------------------------------------------------|
B |----------------------------------------------------|
F#|0-0-0-0--0000--0-0-0-0--00-0--0 0-0-0--0000--0-0-0-0|
B |1-1-1-1--1111--1-1-1-1--11-1--1-1-1-1--1111--0-0-0-0|
PM-----------------------------------------------------|
Tap to rate this tab
# A B C D E F G H I J K L M N O P Q R S T U V W X Y Z