Song name
# A B C D E F G H I J K L M N O P Q R S T U V W X Y Z

Misc Unsigned Bands - District 24 - Sleep tab

DISTRICT 24 - SLEEP

Ok so the beginning of this song is pretty much a bass run on the guitar (added sound 
effects.) But when he says "More sleep! x3 For me!!!" It goes: (ON CHORUS) ******LYRICS 
COMING SOON****

VERSE/INTRO

P.M--------------------------------------------|
|----------------------------------------------|
|----------------------------------------------|
|----------------------------------------------|
|----------------------------------------------|
|----------------------------------------------|
|----9-14-13-12--------------------------------|

Chorus:
-----------------------------------------------|
-----------------------------------------------|
7-7-x---7-7-x--7-7-x---------------------------|
7-7-x---7-7-x--7-7-x---5-7------7--------------|
5-5-3---5-5-3--5-7-3---5-7----5-7--5-----------|
-----------------------3-5---------------------|


And that is the whole song! Thanks!
Tap to rate this tab
 
# A B C D E F G H I J K L M N O P Q R S T U V W X Y Z