Song name
# A B C D E F G H I J K L M N O P Q R S T U V W X Y Z

Misc Unsigned Bands - District 24 - Around Here tab

DISTRICT 24 - AROUND HERE

I wrote this one myself. Hope you enjoy...



INTRO/BRIDGE (Spoken) I am so bored.
-----------------------------------------------|
-----------------------------------------------|
66----66----66----66----66----66----66---------|
66-66-66-66-66-66-66-66-66-66-66-66-66---------|
44-66-44-66-44-66-44-66-44-66-44-66-44---------|
---44----44----44----44----44----44------------|

VERSE:

------------------------------------------------------|
------------------------------------------------------|
6666-------6666---------------------------------------|
6666--444--6666--6666---------------------------------|
4444--444--4444--6666---------------------------------|
------222--------4444---------------------------------|

CHORUS:
------------------------------------------------------|
------------------------------------------------------|
-----6-66--------444----------------------------------|
4-6--6-66--6-66--444--4-44----------------------------|
4-6--4-44--6-66--222--4-44----------------------------|
2-4--------4-44-------2-22----------------------------| x2


VERSE 2:

------------------------------------------------------|
------------------------------------------------------|
------------------------------------------------------|
2-2222---6-6666--4444444------------------------------|
2-2222---6-6666--4444444------------------------------|
0-0000---4-4444--2222222------------------------------|


GO BACK TO BRIDGE/INTRO THEN REPEAT CHORUS


END
-----------------------------------|
-----------------------------------|
6*--66-----------------------------|
6*--66-----------------------------|
4*--44-----------------------------|
-----------------------------------|


LYRICS:

(Verse:)

"You are so beautiful
How can I resist
I don't know but
You are my love."

"I won't let you go
No matter what happens
I don't know baby
But one thing is for sure
I'm in love with you."

"How we met
How we are
Living right by each other
Makes me think
Think how lucky I am
To be yours!

(Intro/Bridge)

(Chorus)

" 'Cause there's no one like you
Around here, you're the only one
I would never break your
Precious little heart
'Cause you are the love of my life
(2nd time) 'N don't you forget it!

(Verse)

"I will sit right by your side
and protect you from all the bad things
If there was a gun to your head
I would take the bullet for you baby"

(Intro/Bridge)

Verse 2:

Baby, don't forget me
'Cause as long as we live
Our love will never die
And that's how our story ends
I'm sending all my love to you
And that can never be broken...Woo!

Bridge/Intro
Then play Chorus

And that is "Around here" by basement band District 24!
Tap to rate this tab
 
# A B C D E F G H I J K L M N O P Q R S T U V W X Y Z