Song name
# A B C D E F G H I J K L M N O P Q R S T U V W X Y Z

Misc Unsigned Bands - Rotor - Drehmoment tab

|-----------------------------------|-----------------------------------|
|-----------------------------------|-----------------------------------|
|-----------------------------------|-----------------------------------|
|---2~---2~-----2~---2~---3~-----3~-|----6~-----------------------------|
|---3~---3~-----3~---3~---3~-----3~-|----3~-----------------------------|
|-0---00---0-00---00---00----00-----|-00----0754-0-34-0~----------------|

|-----------------------------------|-----------------------------------|
|-----------------------------------|-----------------------------------|
|-----------------------------------|-----------------------------------|
|---2~---2~-----2~---2~---3~-----3~-|----6~-----------------------------|
|---3~---3~-----3~---3~---3~-----3~-|----3~-----------------------------|
|-0---00---0-00---00---00----00-----|-00--------------------------------|

repeat the line below 4 times over.
|-----------------------------------|-----------------------------------|
|-----------------------------------|-----------------------------------|
|-----------------------------------|-----------------------------------|
|---2~---2~-----2~---2~---3~-----3~-|----6~-----------------------------|
|---3~---3~-----3~---3~---3~-----3~-|----3~-----------------------------|
|-0---00---0-00---00---00----00-----|-00----0754-0-34-0~----------------|


|-----------------------------------|------------------------------------|
|-----------------------------------|------------------------------------|
|-----------------------------------|------------------------------------|
|---14~--14~----14~--14~---15~--15~-|----18~-----------------------------|
|---15~--15~----15~--15~---15~--15~-|----15~-12109----89-----------------|
|-0---00---0-00----00---00----00----|-00-----------12----12~-------------|
                                          12's and 10's^^
repeat however many times needed.^^



Tap to rate this tab
# A B C D E F G H I J K L M N O P Q R S T U V W X Y Z