Song name
# A B C D E F G H I J K L M N O P Q R S T U V W X Y Z

Misc Unsigned Bands - Arma 2 - Khe Sanh Riff tab

ArmA 2 - Khe Sanh Riff

It's just the first part of this track.

11,5 = 11 then bend to 12
/ = slide up
11,5\11 = release bended 11->11,5 to 11

E|---------------------------------------------------------------------------|
B|-11,5-11,5\11-8-10-8-------------------0-3-3-3-0-3-5-----------------------|
G|---------------------------------------------------------------------------|
D|------------------------0-3-5-5-3-0----------------------------------------|
A|---------------------------------------------------------------------------|
E|---------------------------------------------------------------------------|


E|---------------------------------------------------------------------------|
B|----------11,5\11-8-10-8---5-0-3-5---0-2-3,5\3-0---------------------------|
G|-3-3-5-------------------------------------------2---3-3-5-----------------|
D|-3-3-5-----------------------------------------------3-3-5-----------------|
A|-1-1-3-----------------------------------------------1-1-3-----------------|
E|---------------------------------------------------------------------------|


E|---------------------------------------------------------------------------|
B|-11,5-11,5\11-8-10-8-----------------0-3-3-3-0-5-8-------------------------|
G|-----------------------------------------------------3-3-5-----------------|
D|-----------------------0-3-5-5-3-0-------------------3-3-5-----------------|
A|-----------------------------------------------------1-1-3-----------------|
E|---------------------------------------------------------------------------|


E|------10-----10-------------------------------0-3-5-6,5\6-3-0--------------|
B|-11,5----11,5--11,5\11-8-10-8----------------------------------------------|
G|---------------------------------------------------------------------------|
D|--------------------------------0-3-5-5-3-0--------------------------------|
A|---------------------------------------------------------------------------|
E|---------------------------------------------------------------------------|


E|---------------------------------------------------------------------------|
B|-9,5-9,5\9-6-8-6---3---1-3---1-3-3-----------------------------------------|
G|---------------------2-----------------------------------------------------|
D|-------------------------------------5,5\5-3-5-0-3-6/7---0-0-3---0---5-----|
A|-------------------------------------------------------------------3-------|
E|---------------------------------------------------------------------------|


E|---------------------------------------0-3,5\3-1-0-------------------------|
B|---------------------------1-----1-3---------------------------------------|
G|-----------------------0/2-----2-------------------------------------------|
D|-3-5---0-3-5,5\5-3-5-------------------------------------------------------|
A|---------------------------------------------------------------------------|
E|---------------------------------------------------------------------------|
Tap to rate this tab
# A B C D E F G H I J K L M N O P Q R S T U V W X Y Z