Song name
# A B C D E F G H I J K L M N O P Q R S T U V W X Y Z

Misc Unsigned Bands - Sky Walker - Every Word tab

----------------------------------------------------
	         "Every Word" - Sky Walker
       http://youtu.be/ZrQgzJ908_I
----------------------------------------------------
Tabbed by: Justin Riray               Subscribe!
Youtube:   http://www.youtube.com/JustinRiray

I haven't tabbed anything in a LONG time, but I started listening
to the rare Sky Walker CD again, had to learn some of their songs.

     EADGBe

     INTRO
e|---0-------------4----2----0---------------------------|
B|----0------------------------4/5\4---------------------|
G|----------------4----4----4----------------------------|
D|--6----2-4-2---2----2----2-----------------------------|
A|-4----2-------0----0----0------------------------------|
E|-------------------------------------------------------|

e|---0----------0----0----0------------------------------|
B|----0---------0----0----0------------------------------|
G|--------------2----0----2------------------------------|
D|--6----2-4-2--2----6----2------------------------------|
A|-4----2-------0----6----0------------------------------|
E|-------------------4-----------------------------------|

     VERSE               Pre-CHORUS
e|--0--0--0--0-----------0--0--0-------------------------|
B|--0--0--0--0-----------0--0--0-------------------------|
G|--1--4--6--2-----------4--6--2-------------------------|
D|--2--4--6--2-----------4--6--2-------------------------|
A|--2--2--4--0-----------2--4--0-------------------------|
E|--0--0--0--------------0--0----------------------------|

     CHORUS                                        BREAK
e|-0--0--0---0--0--0---0--0--0--0---0--0--------0--|---0-|
B|-0--0--0---0--0--0---0--0--0--0---0--0--------0--|---0-|
G|-6--4--2---6--4--2---6--4--2--4---2--4--0--0--2--|---6-|
D|-6--4--2---6--4--2---6--4--2--4---2--4--4--6--2--|---6-|
A|-4--2--0---4--2--0---4--2--0--2---0--2--4--6--0--|---4-|
E|-0--0------0--0------0--0-----0------0--2--4-----|---0-|

     INSTRUMENTAL          BRIDGE           BR. END
e|--0--0--0--0----------------0--0--0--------0------------|
B|--0--0--0--0-------------0--0--0--0--------0--0---------|
G|--6--4--2--4-------------0--2--6--4--------2--2---------|
D|--6--4--2--4-------------6--2--6--4--------2--2---------|
A|--4--2--0--2-------------6--0--4--2--------0--3---------|
E|--0--0-----0-------------4-----0--0---------------------|

    BRIDGE SOLO
e|------------------------------------------------|
B|-444-5-4-0-4-5-/7-/9-999-10-9-99-7-77--5-4------|
G|------------------------------------------------|
D|------------------------------------------------|
A|------------------------------------------------|
E|------------------------------------------------|

e|------------------------------------------------|
B|-4-h5-0-555-4-4-h5-0----------------------------|
G|------------------------------------------------|
D|----------------------4h6p-4--------------------|
A|------------------------------------------------|
E|------------------------------------------------|

e|------------------------------------------------|
B|----------------------5-7-----------------------|
G|----------4-4-6-6h9-6---------------------------|
D|---------4-6------------------------------------|
A|-4h7-4-7----------------------------------------|
E|------------------------------------------------|

e|-----7----------4-4-4/5-4-4\2-------------------|
B|-7/9---9-7-5-4--5-5-5/7-5-5\4-------------------|
G|------------------------------------------------|
D|------------------------------------------------|
A|------------------------------------------------|
E|------------------------------------------------|

e|-4-11-12-11-9-------------7---------------------|
B|-5------------10-9------7---7h9-7h9-------------|
G|-6-----------------11-9-------------------------|
D|------------------------------------------------|
A|------------------------------------------------|
E|------------------------------------------------|

    OUTRO SOLO
e|--------------------------------------------------------|
B|-5-5-4-5-4-0-4-5-/7-/9-9-9-10-9-9-7-7-5-7-/9-10-9-10-9--|
G|--------------------------------------------------------|
D|--------------------------------------------------------|
A|--------------------------------------------------------|
E|--------------------------------------------------------|
Tap to rate this tab
# A B C D E F G H I J K L M N O P Q R S T U V W X Y Z