Song name
# A B C D E F G H I J K L M N O P Q R S T U V W X Y Z

Misc Unsigned Bands - Eddie Higgins Trio - Autumn Leaves tab

-----------------------------------------------------------------------------
			   Autumn Leaves - Eddie Higgins Trio
-----------------------------------------------------------------------------
Tabbed by: kevstr

Tuning:Standard


Listen to the actual song for rhythm/timings etc. 

Have fun - it's an awesome track!

e|--------------------------------------------------------|
B|--------------------------------------------------------|
G|-------6-------5----------------------------------------|
D|---5-6-------5---8/10--------8-------6------------------|
A|-8-------6-8-------------6-8-----5-7--------------------|
E|-----------------------9-------8------------------------|

e|---------------------------------------------------------|
B|-------6-------------------------------------------------|
G|---------5-6-----------8-4-5-----------6-----------------|
D|-----6-------------5-8---------------6---8--5-8-6--------|
A|-7-8---------6-5-6---------------7-8--------------8------|
E|-----------------------------8-9-------------------------|

e|------------------------------------------------11-12-9-11-8---|
B|-------------------8-6/8-9--8-9-11--11-----8-11----------------|
G|-------------------x-x/x-x-------------8-8---------------------|
D|---------5-5--5-5--5-3/5-6-------------------------------------|
A|-7-8-7-8-------------------------------------------------------|
E|---------------------------------------------------------------|

e|----8-9-9---------9-8------------------------------------------|
B|-11-------11-11-8-8--------9-8------8-7-----7-6----------------|
G|------------------9---9-10--------9-------8--------------------|
D|-------------------------------10-------10---------------------|
A|---------------------------------------------------------------|
E|---------------------------------------------------------------|

e|-6-6-6-6---------------------------------------------13-------|
B|-6-6-6-9-8---------9-----------------------8-9-12-13----13----|
G|-6-6-6-6-9-----------9----------------9-10--------------------|
D|-----------10-9-10---------------9-10-------------------------|
A|-----------------------7-8-10-11------------------------------|
E|--------------------------------------------------------------|

e|-11-11-11-13----11------------------------------------------------|
B|----11-------14----13-----11-13-11-------11-----------------------|
G|----12-----------------13----------13-12----13-12-10-12-10--------|
D|-----------------------------------------------------------13-11--|
A|------------------------------------------------------------------|
E|------------------------------------------------------------------|

e|------------------------------------------------------------------|
B|------------------------------------------------------------------|
G|------------------------------------------------------------------|
D|-13-11-10----10---------------------------------------------------|
A|----------13----13-11-10-11-10----------10------8------8----------|
E|-------------------------------13-11-12----13-8---8-11---11-10-9--|

e|----------------------------------------------------------|
B|----------------------------------------------------------|
G|-----------8----------------------------------------------|
D|--------10---11-7-8-/11-10--------------------------------|
A|---8-11--------------------11-----------------------------|
E|-9----------------------------11--------------------------|

e|--------------------------------------------------------------------|
B|----------------13-14-13-11-----------------------------------------|
G|----------10-13-------------13-9-10-13-12-10-9----------------------|
D|-11-10-11--------------------------------------11-10-8--------------|
A|-------------------------------------------------------11-10-8------|
E|-----------------------------------------------------------------10-|

e|----------------------------------------------------------------------|
B|-------------------------------------------------13-------------------|
G|-12-------12-------12-------12-------12-------12----------------------|
D|----13h14----13h14----13h14----13h14----13h14-------------------------|
A|----------------------------------------------------------------------|
E|----------------------------------------------------------------------|

e|----------------------------------------------------------|
B|-11h13p11-------------------------------------------------|
G|----------12-13-10-9-12-10-9-10---------------------------|
D|--------------------------------10----13-12-11-10----10---|
A|-----------------------------------11-------------11------|
E|----------------------------------------------------------|

e|----------------------------------------------------------|
B|-11--9---8---6--5h6-5-------------------------------------|
G|-10--10--9---5--------8---6-------------------------------|
D|-11--10--10--6----------6---------------------------------|
A|----------------------------------------------------------|
E|----------------------------------------------------------|

e|-------8-----6--------------------------------------------|
B|-------------------9-----8-7-5-6-------------2------------|
G|-5h6p5---5h6---5h6---5h6---------5---------3--------------|
D|-------------------------------------5---4-----4----------|
A|-----------------------------------7---4------------------|
E|----------------------------------------------------------|

e|------------------------11-12-9---------------------------------|
B|--------------------------------11------------------------------|
G|-------------------8h10------------12-9--------------10---------|
D|-----------8h10h11----------------------11-8----8/10----8-------|
A|----8h9h11-----------------------------------10-----------11-8--|
E|-11-------------------------------------------------------------|

e|--------------13-16--/16-/16--16-13-16-13-16-13--------------------|
B|------------9----14--/14-/14--------------------11h12p11----11-----|
G|---------10----------------------------------------------13----13--|
D|------10-----------------------------------------------------------|
A|-8-11--------------------------------------------------------------|
E|-------------------------------------------------------------------|

e|-15-13--------------------------------------------------------------------|
B|-------13-----------------------------------------------------------------|
G|----------13-------------13-------------12----------12-13-------12-13-15--|
D|-------------15----------------------15----------15----------15-----------|
A|----------------15----------------15----------15----------15--------------|
E|-------------------16-13----13-16----------16-----------------------------|


e|----------------------------------------------------------|
B|-------------13----------13-16-------13-16----------------|
G|----12-13-15----12-13-15-------13-15----------------------|
D|-15-------------------------------------------------------|
A|----------------------------------------------------------|
E|----------------------------------------------------------|

e|-----------14-16----14/16----13/14-13--15h16-15----15-13------------------|
B|-14---13---------16-------16--------------------17-------13---------------|
G|---14---15--------------------------------------------------15-13-15-13---|
D|------------------------------------------------------------------------15|
A|--------------------------------------------------------------------------|
E|--------------------------------------------------------------------------|

e|-15-------15-------15-------15-------15-------15----------|
B|----16h17----16h17----16h17----16h17----16h17-------------|
G|----------------------------------------------------------|
D|----------------------------------------------------------|
A|----------------------------------------------------------|
E|----------------------------------------------------------|

e|-/20-21-20-18-16-15----------15------------------------------------------|
B|--------------------18-16-17----18-17-18---------------------------------|
G|-----------------------------------------17-------17----16----15----14---|
D|--------------------------------------------18-15----15----15----15------|
A|-------------------------------------------------------------------------|
E|-------------------------------------------------------------------------|

e|-------------------------------------------------------------------------|
B|-------------------------------------------------------------------------|
G|-13h14p13----------------13-14----------------14-15----------------15----|
D|----------15----------15-------14----------14-------16----------16-------|
A|-------------16-11-16-------------16----16-------------16----16----------|
E|-------------------------------------17-------------------18-------------|

e|-------------------------------------------------------------------16-0-|
B|-13----------------13-14----------14-16----------16-17----------17------|
G|----13----------13-------------13-------------15-------------15---------|
D|-------15----15-------------15-------------17-------------17------------|
A|----------15-------------16-------------18-------------19---------------|
E|------------------------------------------------------------------------|

e|--12-16-15-12-13------------------------------------------------|
B|-----------------13---------------------------------------------|
G|--------------------13----16----15----13----15h17----15-13------|
D|-----------------------15----15----15----15-------14-------14-15|
A|----------------------------------------------------------------|
E|----------------------------------------------------------------|

e|-13-11-13-9-13----13----13---13---------------------------|
B|---------------13----11----9----8-9-8---------------------|
G|--------------------------------------10-8----------------|
D|----------------------------------------------------------|
A|----------------------------------------------------------|
E|----------------------------------------------------------|

e|-11-9-11-8-11----11---11---11-----------------------------|
B|--------------11----9----7----6-7-6-----------------------|
G|------------------------------------8-6-------------------|
D|----------------------------------------------------------|
A|----------------------------------------------------------|
E|----------------------------------------------------------|

e|-9-8-9-6-9---9---9---9-------------------------------------------------|
B|-----------9---8---6---5-8-5---11-9-------9-8------8-6-----6-4---------|
G|-----------------------------5---------10--------9-------5-----5-------|
D|------------------------------------10--------10-------6---------4-----|
A|-------------------------------------------------------------------6---|
E|-----------------------------------------------------------------------|

e|---------9-13-9------15-11-13----11-------------------------------------|
B|-------9--------9-------------14----13-14-11-13----11-------------------|
G|----10------------10----------------------------13----12-13-10-12-------|
D|-11---------------------------------------------------------------13----|
A|------------------------------------------------------------------------|
E|------------------------------------------------------------------------|

e|--------------------------------------------------------------------------|
B|--------------------------------------------------------------------------|
G|-10-----------------------------------------------------------------------|
D|----11-13-10-11----10----8-10-8--------------------------8--6---8---8/10--|
A|----------------13----11--------11-10-11-10-8-7-8-10-7--------8---8-------|
E|-------------------------------------------------------8------------------|

e|---------------------------13-----------------------------|
B|------------9/11-9----9-----------------------------------|
G|-9-10-12-----------12---10--------------------------------|
D|---------10-----------------------------------------------|
A|----------------------------------------------------------|
E|----------------------------------------------------------|

e|-16-15-16-13-16----16----16----16-------------------------|
B|----------------16----14----13----11-13-11----------------|
G|-------------------------------------------13-12----------|
D|----------------------------------------------------------|
A|----------------------------------------------------------|
E|----------------------------------------------------------|

e|-15-13-15-11-15----15----15----15-------------------------|
B|----------------14----13----11----9-11-9------------------|
G|-----------------------------------------11-10------------|
D|----------------------------------------------------------|
A|----------------------------------------------------------|
E|----------------------------------------------------------|

e|-13-11-13-9-13----13------------------------------------------------------|
B|---------------13----11-9-9-8-9-11-8---11-9-------9-8------8-7------7-6---|
G|-------------------------------------9---------10--------9--------8----5-8|
D|--------------------------------------------10--------10-------10---------|
A|--------------------------------------------------------------------------|
E|--------------------------------------------------------------------------|

e|----------------------------------------------------------|
B|----------------------------------------------------------|
G|-8-8-6/8--8--6/8--8/10------------------------------------|
D|-x-x-x-x--x--x-x--x-x-------------------------------------|
A|-6-6-4/6--6--4/6--6/8-------------------------------------|
E|----------------------------------------------------------|




************************************

| /   slide up
| \   slide down
| h   hammer-on
| p   pull-off
| x   Mute note


************************************


Please rate :)
Tap to rate this tab
# A B C D E F G H I J K L M N O P Q R S T U V W X Y Z