Song name
# A B C D E F G H I J K L M N O P Q R S T U V W X Y Z

Misc Unsigned Bands - District 24 - Crazy tab

CRAZY - DISTRICT 24     |
---------------------|

[!] = Slam strings
[*] stop on chord


Intro/Verse:


----------------------------------------------|
----------------------------------------------|
---------7*-----------------------------------|
9-9-7-7--7*--5-5-5-5--------------------------|
9-9-7-7--5*--5-5-5-5--------------------------|
7-7-5-5------3-3-3-3--------------------------|

          P.M.                  P.M                P.M                 P.M
    |--------|        |--------|       |-----------|         |-------------|
---------------------------------------------------------------------------|
---------------------------------------------------------------------------|
---------------------------7-----------------------------------------------|
9------------7-------------7----------------5------------------------------|
9------------7-------------5-5-5-5-5-5-5---5-------------------------------|
7-7-7-7-7-7--5-5-5-5-5-5-------------------3--3-3-3-3-3-3------------------| X2


THEN:
[!] |-----------------------------|
----------------------------------|
----------------------------------|
----------------------------------|
5-5-5-5-5-5-5---------------------|
5-5-5-5-5-5-5---------------------|
3-3-3-3-3-3-3---------------------|

---------------0----------------0----0-------0---------|
---------------0----------------0----0-------0---------|
---------------0----------------0----0-------0---------|
9---9---9---9----7---7---7---7----5----7--7------------|
9---9---9---9----7---7---7---7----5----7--7------------|
7-7-7-7-7-7-7----5-5-5-5-5-5-5----3---5-5-5------------|


Then a Free Time (whatever you want)
Tap to rate this tab
# A B C D E F G H I J K L M N O P Q R S T U V W X Y Z