Song name
# A B C D E F G H I J K L M N O P Q R S T U V W X Y Z

Misc Unsigned Bands - Keizura - Metal Sickness tab

http://www.youtube.com/watch?v=lSriNGcOUDw




------------------------------------------|
------------------------------------------|
------------------------------------------|
------------------------------------3/4---|
-22222222-33333333-55555555-2---2---1/2---| Repeat 4x
-00000000-11111111-33333333-00000000------|

------------------------------------------|
------------------------------------------|
------------------------------------------|
-------------------------3/4--------------|
-2------3------5-2---2---1/2--------------| Repeat 2x
-0--000-1--000-3-00000000-----------------|

------------------------------------------|
------------------------------------------|
------------------------------------------|
------------------------------------3/4---|
-22222222-33333333-55555555-2---2---1/2---| Repeat 4x
-00000000-11111111-33333333-00000000------|

------------------------------------------|
------------------------------------------|
------------------------------------------|
-------------------------3/4--------------|
-2------3------5-2---2---1/2--------------| Repeat 2x
-0--000-1--000-3-00000000-----------------|

------------------------------------------|
------------------------------------------|
------------------------------------------|
------------------------------------------|
-2---2--2-3---3--3/5---5--5/7---8--7------| Repeat 4x
-00000000-10001001/30003003/50006005/2----|

---------------------------------------------|
---------------------------------------------|
---------------------------------------------|
------------------9/10-----------------9/10--|
-------10/9-------7/8-------10/9-------7/8---| Repeat 8x
-0000008-/7-000000----0000008-/7-000000------|

------------------------------------------|
------------------------------------------|
------------------------------------------|
------------------------------------------|
-2---2--2-3---3--3/5---5--5/7---8--7------| Repeat 4x
-00000000-10001001/30003003/50006005/2----|

---------------------------------------------|
---------------------------------------------|
---------------------------------------------|
------------------9/10-----------------9/10--|
-------10/9-------7/8-------10/9-------7/8---| Repeat 8x
-0000008-/7-000000----0000008-/7-000000------|
Tap to rate this tab
# A B C D E F G H I J K L M N O P Q R S T U V W X Y Z