Song name
# A B C D E F G H I J K L M N O P Q R S T U V W X Y Z

Misc Unsigned Bands - Yoshis Island - Touch Fuzzy Get Dizzy tab

|----------------------------------|
|----------------------------------|
|----------------------------------|
|-----------------------13-11------|
|--------------12----12-------12---|
|--11-11-11-11----11-------------9-|

|------------------------------------|
|------------------------------------|
|------------------------------------|
|-----------------------13-----------|
|--------------12----12-------12-----|
|--11-11-11-11----11-------11----9-9-|

|----------------------------------|
|----------------------------------|
|----------------------------------|
|-----------------------13-11------|
|--------------12----12-------12---|
|--11-11-11-11----11-------------9-|

|------------------------------------|
|------------------------------------|
|------------------------------------|
|-----------------------13-----------|
|--------------12----12-------12-----|
|--11-11-11-11----11-------11----9-9-|

|---------------------------------------------------------|   X2
|---------------------------------------------------------|
|--------------------13----------------------8---8-8-8----|
|--11-11-11----13-11----11-11-11-13-11-13-11---7----------|
|-----------12--------------------------------------------|
|---------------------------------------------------------|

|------------------------------|
|------------------------------|
|------------------------------|
|--13-11-13-11-13--------------|
|-----------------12---12------|
|--------------------9----9-11-|

|-------------------------------|
|-------------------------------|
|-------------------------------|
|--13-11-13-11-13---------------|
|-----------------12------12-12-|
|--------------------11-9-------|

Some things may be wrong, please email me if there is something wrong: AJBenoughsaid@gmail.com

Pretty easy, sounds pretty good on an acoustic. :D
Tap to rate this tab
# A B C D E F G H I J K L M N O P Q R S T U V W X Y Z