Song name
# A B C D E F G H I J K L M N O P Q R S T U V W X Y Z

Misc Unsigned Bands - Black Edge - The Strength Within tab

e-0-0-0-0-0-/5-5-5-5-/3-3-3-3-/7-7-7-7---------------|
a-2-2-2-2-2-/7-7-7-7-/5-5-5-5-/9-9-9-9---------------|Repeat x3
d-2-2-2-2-2-/7-7-7-7-/5-5-5-5-/9-9-9-9---------------|
g----------------------------------------------------|
b----------------------------------------------------|
e----------------------------------------------------|

e----------------------------------------------------|
a-7-7-7-7--10-10-10-10--5-x6--Repeatx3---3-3-3-3~----|
d-9-9-9-9--12-12-12-12--7----------------5-5-5-5~----|
g----------------------------------------------------|
b----------------------------------------------------|
e----------------------------------------------------|

Then Repeat the whole thing once more
Tap to rate this tab
# A B C D E F G H I J K L M N O P Q R S T U V W X Y Z