Song name
# A B C D E F G H I J K L M N O P Q R S T U V W X Y Z

Misc Unsigned Bands - As Sahar - Satans Requittance tab

E|------------------------------------------------------------------|
B|------------------------------------------------------------------|
G|------------------------------------------------------------------|
D|---------------------3-------------------------------3------------|
A|-----5---5---5---5-6---6-5-3-5-3333444411113333--5-6---6-5-3-1-0--|
E|-3-3---3---3---3------------------------------------------------5-|

E|------------------------------------------------------------------|
B|------------------------------------------------------------------|
G|------------------------------------------------------------------|
D|---------------------3--------------------------------------------|
A|-----5---5---5---5-6---6-5-3-5-3333444411113333-1-0-1-0-1---------|
E|-3-3---3---3---3-----------------------------------------3-5~~~---|
Tap to rate this tab
# A B C D E F G H I J K L M N O P Q R S T U V W X Y Z