Song name
# A B C D E F G H I J K L M N O P Q R S T U V W X Y Z

Misc Unsigned Bands - District 24 - Memories tab

---------------------------------------------------------------------------------
                                  DISTRICT 24 - MEMORIES
---------------------------------------------------------------------------------

+--------------------------------------------------------------------------+
| This file is the author's own work and represents their interpretation   |
| of the song. You may only use this file for private study, scholarship,  |
| or research.                                                             |
+--------------------------------------------------------------------------+

[!] Speed up


INTRO/VERSE: [!]

2-2----2-----2--2-----2-----5-5----5------4-----4------------|
2---2----2---3----3-----3---5---5----5------5-----5----------|
2-----2----2-2------2-----2-4-----4----4------4-----4--------|
0------------0--------------0--------------------------------|
-------------------------------------------------------------|
-------------------------------------------------------------|


LYRICS

"Memories pouring
inside of my head
Having troubles
Meeting my ends
Meet all at once
My memories come
One by one
Now I see
Your inside of me
In my memories
The pain to want
Like rain in a lightning storm
the night you broke my heart

"Now my memories
Broken to peices
Inside of me, of my memories
Of me and you and all of the people
I've met, I know are just a memory!
You breaking my heart
of all the memories now I
can get over you
(slow down music)
It seems as though it was
all just a vision
That is no longer there...

Strum A chord
Tap to rate this tab
# A B C D E F G H I J K L M N O P Q R S T U V W X Y Z