Song name
# A B C D E F G H I J K L M N O P Q R S T U V W X Y Z

Misc Unsigned Bands - District 24 - Stuck tab

DISTRICT 24 - STUCK


INTRO

------------------------------------------------------|
------------------------------------------------------|
4---2-------------------------------------------------|
4---2---2---4-----------------------------------------|
2h4-0h2-2---4-----------------------------------------|
--------0h2-2h4------/17------------------------------|

Verse: (fast pace, not too fast)

------------------------------------------------------------|
------------------------------------------------------------|
4---4---2---2-----------------------------------------------|
4---4---2---2---2---2----4---4------------------------------|
2-2-2-2-0-0-0-0-2---2----4---4------------------------------|
----------------0-0-0-0--2-2-2-2----------------------------|

Chorus:

---------------------------------------------------------|
---------------------------------------------------------|
2-2-2-2-4-4-4-4------------------------------------------|
2-2-2-2-4-4-4-4------------------------------------------|
0-0-0-0-2-2-2-2------------------------------------------|
---------------------------------------------------------|

Solo:


--------------------------------------------------------|
--------------------------------------------------------|
-------------------7------9-----------------------------|
----7---9------------7--9---x2--------------------------|
-----7-9--x2---7h9--------------------------------------|
7h9-----------------------------------------------------|


LYRICS:

Young love
Always ends soon
Something goes wrong
That you didn't mean to do
It can't be saved
It's in a small caved in hole
That you can't get through
... ...
You try to keep them as long as you can
And once they leave you
You scream d***
After everything we did
I can't pretend that you were
just a kid that I never knew!

Chorus:
And I know you don't want me back
but i'm done smoking my crack
You made me this way
You should come back anyday
I smell like ****
And I can't quit
So come and help me out!

Down, down we go
Into the pit of h***
Maybe, maybe if we just listen
We can hear the bell
Once we are in
I'll kick you in the shin
And when you shed your tear
you'll have alot of fear!

Thanks.
Tap to rate this tab
 
# A B C D E F G H I J K L M N O P Q R S T U V W X Y Z