Song name
# A B C D E F G H I J K L M N O P Q R S T U V W X Y Z

Misc Unsigned Bands - From The Makers Of - Noble Six tab

-------------------------------------------------------------------------------
			     Noble Six - From The Makers Of
-------------------------------------------------------------------------------
Written by: Alec Doyle
Tabbed by: Matt Magnell
Email: mackissesboys@yahoo.com
Tuning: Dropped C#

www.facebook.com/fromthemakersof


Note: This song is an original creation, do not duplicate this tab in any way with out 
permission. Thank you, enjoy!


Guitar 1 (Rhythm)

      E  E  E  E  E  E     E  E  E  E  E  E     E  E  E  E  E  E
D#||-----------0--------|-----------0--------|-----------0--------|
A#||--------6-----6-----|--------6-----6-----|--------6-----6-----|
F#||-----7-----------7--|-----7-----------7--|-----6-----------6--|
C#||--0-----------------|--0-----------------|--------------------|
G#||--------------------|--------------------|--4-----------------|
C#||--------------------|--------------------|--------------------|


  E  E  E  E  E  E     E  E  E  E  E  E     E  E  E  E  E  E
-----------0--------|-----------0--------|-----------0--------|
--------6-----6-----|--------6-----6-----|--------6-----6-----|
-----6-----------6--|-----7-----------7--|-----7-----------7--|
--------------------|--0-----------------|--0-----------------|
--4-----------------|--------------------|--------------------|
--------------------|--------------------|--------------------|


  E  E  E  E  E  E     E  E  E  E  E  E     H.              H.
-----------0--------|-----------0--------|---------------|---------------|
--------6-----6-----|--------6-----6-----|---------------|---------------|
-----6-----------6--|-----6-----------6--|---------------|---------------|
--------------------|--------------------|--0------------|--L------------|
--4-----------------|--4-----------------|--0------------|--L------------|
--------------------|--------------------|--0------------|--L------------|


                   |--3--|
  H.               S  S  S  E  E  Q.        H.              H.
---------------|-------------------------|---------------|---------------|
---------------|--10-10-10-10--8---------|---------------|---------------|
---------------|--10-10-10-10--9---------|---------------|---------------|
--0------------|-------------------------|--0------------|--L------------|
--0------------|-------------------------|--0------------|--L------------|
--0------------|-------------------------|--0------------|--L------------|

V
                         |-3-|
  H.              Q.     S S S E  E     E.  E  S  E   E   E
---------------|---------------------|--0---0--0-------------|
---------------|---------6-6-6-6--5--|--6---6--6-10--10--10--|
---------------|---------7-7-7-7--6--|--7---7--7--x---x---x--|
--0------------|--L------------------|--0---0--0--8---8---8--|
--0------------|--L------------------|-----------------------|
--0------------|--L------------------|-----------------------|


  E.  E  S E  E  E     E.  E  S  E   E   E     E.  E  S  E   E   E
--0---0--0----------|--0---0--0-------------|-----------------------|
--6---6--6-5--5--5--|--6---6--6-10--10--10--|-----------14--14--14--|
--7---7--7-6--6--6--|--7---7--7--x---x---x--|------------x---x---x--|
--0---0--0-5--5--5--|--0---0--0--8---8---8--|--8---8--8-11--11--11--|
--------------------|-----------------------|--8---8--8-------------|
--------------------|-----------------------|--8---8--8-------------|


  E.  E  S  E   E   E     E.  E  S E  E  E     E.  E  S  E   E   E
--0---0--0-------------|--0---0--0----------|--0---0--0-------------|
--6---6--6-10--10--10--|--6---6--6-5--5--5--|--6---6--6-10--10--10--|
--7---7--7--x---x---x--|--7---7--7-6--6--6--|--7---7--7--x---x---x--|
--0---0--0--8---8---8--|--0---0--0-5--5--5--|--0---0--0--8---8---8--|
-----------------------|--------------------|-----------------------|
-----------------------|--------------------|-----------------------|


                                                           |--3--| |--3--|
  E.  E  S  E   E   E     E.  E  S  E   E   E     E.  E  S S  S  S S  S  S  E
-----------------------|--0---0--0-------------|--0---0--0---------3h-5h-6p-0--|
-----------14--14--14--|--6---6--6-10--10--10--|--6---6--6-3h-5h-6-------------|
------------x---x---x--|--7---7--7--x---x---x--|--7---7--7---------------------|
--8---8--8-11--11--11--|--0---0--0--8---8---8--|--0---0--0---------------------|
--8---8--8-------------|-----------------------|-------------------------------|
--8---8--8-------------|-----------------------|-------------------------------|


                                |--3--| |--3--|
  E.  E  S E  E  E     E.  E  S S  S  S S  S  S E     E.  E  S  E   E   E
--0---0--0----------|--0---0--0---------3h-5h-6----|--0---0--0-------------|
--6---6--6-5--5--5--|--6---6--6-3h-5h-6---------2--|--6---6--6-10--10--10--|
--7---7--7-6--6--6--|--7---7--7--------------------|--7---7--7--x---x---x--|
--0---0--0-5--5--5--|--0---0--0--------------------|--0---0--0--8---8---8--|
--------------------|------------------------------|-----------------------|
--------------------|------------------------------|-----------------------|


           |--3--| |--3--|
  E.  E  S S  S  S S  S  S  E     E.  E  S E  E  E
--0---0--0---------3h-5h-6p-0--|--0---0--0----------|
--6---6--6-3h-5h-6-------------|--6---6--6-5--5--5--|
--7---7--7---------------------|--7---7--7-6--6--6--|
--0---0--0---------------------|--0---0--0-5--5--5--|
-------------------------------|--------------------|
-------------------------------|--------------------|


           |--3--| |--3--|
  E.  E  S S  S  S S  S  S  E      E.   E   S E  E  E      E.   E   S E  E  E
--0---0--0---------3h-5h-6s-9--|-----------------------|-----------------------|
--6---6--6-3h-5h-6-------------|-----------------------|-----------------------|
--7---7--7---------------------|--10---10--10-7--7--7--|---9----9---9-6--6--6--|
--0---0--0---------------------|---x----x---x-x--x--x--|---x----x---x-x--x--x--|
-------------------------------|---8----8---8-5--5--5--|---7----7---7-4--4--4--|
-------------------------------|--12---12--12-8--8--8--|--10---10--10-7--7--7--|


                              |-3-|
   E.   E   S E  E  E      E  S S S E  E  Q        E.   E   S E  E  E
-----------------------|-----------------------|-----------------------|
-----------------------|-----------------------|-----------------------|
--10---10--10-7--7--7--|---9--x-x-x-7--6-------|--10---10--10-7--7--7--|
---x----x---x-x--x--x--|---x--x-x-x-x--x-------|---x----x---x-x--x--x--|
---8----8---8-5--5--5--|---7--x-x-x-5--4-------|---8----8---8-5--5--5--|
--12---12--12-8--8--8--|--10--x-x-x-8--7-------|--12---12--12-8--8--8--|


                                                      |-3-|
   E.   E   S E  E  E      E.   E   S E  E  E      E  S S S E  E  Q
-----------------------|-----------------------|-----------------------|
-----------------------|-----------------------|-----------------------|
---9----9---9-6--6--6--|--10---10--10-7--7--7--|---9--x-x-x-7--6-------|
---x----x---x-x--x--x--|---x----x---x-x--x--x--|---x--x-x-x-x--x-------|
---7----7---7-4--4--4--|---8----8---8-5--5--5--|---7--x-x-x-5--4-------|
--10---10--10-7--7--7--|--12---12--12-8--8--8--|--10--x-x-x-8--7-------|


   E.   E   S E   E  S  S    E.  E  S E  E  S  S     E.   E   S E   E  S  S
--------------------------|----------------------|--------------------------|
-----------------10--8p-0-|--------------8--5p-0-|-----------------10--8p-0-|
--10---10--10-9-----------|--7---7--7-6----------|--10---10--10-9-----------|
---x----x---x-------------|--x---x--x------------|---x----x---x-------------|
---8----8---8-------------|--5---5--5------------|---8----8---8-------------|
--12---12--12-------------|--8---8--8------------|--12---12--12-------------|


  E.  E  S E  E  S  S     E.   E   S E   E  S  S    E.  E  S E  E  S  S
----------------------|--------------------------|----------------------|
--------------8--5p-0-|-----------------10--8p-0-|--------------8--5p-0-|
--7---7--7-6----------|--10---10--10-9-----------|--7---7--7-6----------|
--x---x--x------------|---x----x---x-------------|--x---x--x------------|
--5---5--5------------|---8----8---8-------------|--5---5--5------------|
--8---8--8------------|--12---12--12-------------|--8---8--8------------|


   E.   E   S E   E  S  S     E   S  S  S  S   E   S  S  S  S
--------------------------|-----------------------------------|
-----------------10--8p-0-|--11--11-11-11-11-/14--14-14-14-14-|
--10---10--10-9-----------|-----------------------------------|
---x----x---x-------------|-----------------------------------|
---8----8---8-------------|-----------------------------------|
--12---12--12-------------|-----------------------------------|


  |--3-|  |--3--|  |--3--|  |--3--|     |--3--|  |--3--|
  Q    E  E  E  E  E  E  E  E  E  E     E  E  E  E  E  E   E  E   Q
-------------------------------------|---------------------------------|
-------------------------------------|---------------------------------|
-------------------------------------|---------------------------------|
--0----0-----------------------------|---------------------------------|
--0----0--5--4--4--4--7--7--7--5--5--|--5--8--8--8--7--7--10--x--12----|
--0----0--3--2--2--2--5--5--5--3--3--|--3--7--7--7--5--5---8--x--11----|


  |--3-|  |--3--|  |--3--|  |--3--|     |--3--|  |--3--|
  Q    E  E  E  E  E  E  E  E  E  E     E  E  E  E  E  E   E  E   Q
-------------------------------------|---------------------------------|
-------------------------------------|---------------------------------|
-------------------------------------|---------------------------------|
--0----0-----------------------------|---------------------------------|
--0----0--5--4--4--4--7--7--7--5--5--|--5--8--8--8--7--7--10--x--12----|
--0----0--3--2--2--2--5--5--5--3--3--|--3--7--7--7--5--5---8--x--11----|


  |--3-|  |--3--|  |--3--|  |--3--|     |--3--|  |--3--|
  Q    E  E  E  E  E  E  E  E  E  E     E  E  E  E  E  E   E  E   Q
-------------------------------------|---------------------------------|
-------------------------------------|---------------------------------|
-------------------------------------|---------------------------------|
--0----0-----------------------------|---------------------------------|
--0----0--5--4--4--4--7--7--7--5--5--|--5--8--8--8--7--7--10--x--12----|
--0----0--3--2--2--2--5--5--5--3--3--|--3--7--7--7--5--5---8--x--11----|


  |--3-|  |--3--|  |--3--|  |--3--|     |--3--|  |--3--|
  Q    E  E  E  E  E  E  E  E  E  E     E  E  E  E  E  E   E  E   Q
-------------------------------------|---------------------------------|
-------------------------------------|---------------------------------|
-------------------------------------|---------------------------------|
--0----0-----------------------------|---------------------------------|
--0----0--5--4--4--4--7--7--7--5--5--|--5--8--8--8--7--7--10--x--12----|
--0----0--3--2--2--2--5--5--5--3--3--|--3--7--7--7--5--5---8--x--11----|


                                                      PM
  E.  E  S E  E  E      E.   E   S  E  Q       E.  E  S  E  E  E
--------------------|-----------------------|---------------------|
--------------------|-----------------------|---------------------|
--------------------|-----------------------|------------7--7--7--|
--3---3--3-3--3--3--|--11---11--11-11-------|--0---0--0--6--6--6--|
--3---3--3-3--3--3--|---7----7---7--7-------|--0---0--0--5--5--5--|
--3---3--3-3--3--3--|---7----7---7--7-------|--0---0--0-----------|


         PM                    PM                       PM
  E.  E  S  E  E  E     E.  E  S   E   E   E     E.  E  S  E  E  E
---------------------|------------------------|---------------------|
---------------------|------------------------|---------------------|
------------7--7--7--|------------10--10--10--|------------6--6--6--|
--0---0--0--6--6--6--|--3---3--3---9---9---9--|--2---2--2--5--5--5--|
--0---0--0--5--5--5--|--3---3--3---8---8---8--|--2---2--2--4--4--4--|
--0---0--0-----------|--3---3--3--------------|--2---2--2-----------|


         PM                    PM             PM PM PM PM PM
                                              |--3--|         |--3--|
  E.  E  S  E  E  E     E.  E  S  E  E  E     S  S  S  E  E   S  S  S  E   E
---------------------|---------------------|----------------------------------|
---------------------|---------------------|----------------------------------|
------------7--7--7--|------------7--7--7--|-----------------10-10-10-10--10--|
--0---0--0--6--6--6--|--0---0--0--6--6--6--|-----------3--3---9--9--9--9---9--|
--0---0--0--5--5--5--|--0---0--0--5--5--5--|--3--3--3--3--3---8--8--8--8---8--|
--0---0--0-----------|--0---0--0-----------|--3--3--3--3--3-------------------|


  PM PM PM PM PM
  |--3--|        |-3-|
  S  S  S  E  E  S S S E  E     E.  E  S E  E  E     E.  E  S E  E  E
-----------------------------|--------------------|--------------------|
-----------------------------|--------------------|--------------------|
-----------------6-6-6-6--6--|-----------7--7--7--|-----------7--7--7--|
-----------2--2--5-5-5-5--5--|--0---0--0-6--6--6--|--0---0--0-6--6--6--|
--2--2--2--2--2--4-4-4-4--4--|--0---0--0-5--5--5--|--0---0--0-5--5--5--|
--2--2--2--2--2--------------|--0---0--0----------|--0---0--0----------|


  E.  E  S  E   E   E     E.  E  S E  E  E     E.  E  S E  E  E
-----------------------|--------------------|--------------------|
-----------------------|--------------------|--------------------|
-----------10--10--10--|-----------6--6--6--|-----------7--7--7--|
--3---3--3--9---9---9--|--2---2--2-5--5--5--|--0---0--0-6--6--6--|
--3---3--3--8---8---8--|--2---2--2-4--4--4--|--0---0--0-5--5--5--|
--3---3--3-------------|--2---2--2----------|--0---0--0----------|


                       PM PM PM PM PM
                       |--3--|         |--3--|
  E.  E  S E  E  E     S  S  S  E  E   S  S  S  E   E
--------------------|----------------------------------|
--------------------|----------------------------------|
-----------7--7--7--|-----------------10-10-10-10--10--|
--0---0--0-6--6--6--|-----------3--3---9--9--9--9---9--|
--0---0--0-5--5--5--|--3--3--3--3--3---8--8--8--8---8--|
--0---0--0----------|--3--3--3--3--3-------------------|


  PM PM PM PM PM                   PM PM PM PM PM
  |--3--|        |-3-|             |--3--|
  S  S  S  E  E  S S S E  E     E  S  S  S  S  S  E  E  E
-----------------------------|-----------------------------|
-----------------------------|-----------------------------|
-----------------6-6-6-6--6--|-----------------------------|
-----------2--2--5-5-5-5--5--|--0-----------------0--0--0--|
--2--2--2--2--2--4-4-4-4--4--|--0--0--0--0--0--0--0--0--0--|
--2--2--2--2--2--------------|--0--0--0--0--0--0--0--0--0--|


                                 PM PM PM PM PM
     |--3--|                     |--3--|
  E  S  S  S E  E  E  S  S    E  S  S  S  S  S  E  E  E
---------------------------|-----------------------------|
---------------------------|-----------------------------|
-----6h-7p-6---------------|-----------------------------|
--0----------7-------------|--0-----------------0--0--0--|
--0-------------8--7--4p-0-|--0--0--0--0--0--0--0--0--0--|
--0------------------------|--0--0--0--0--0--0--0--0--0--|


                                    PM PM PM PM PM
     |--3--|                        |--3--|
  E  S  S  S E  E   S  S S  S    E  S  S  S  S  S  E  E  E
------------------------------|-----------------------------|
------------------------------|-----------------------------|
-----6h-7p-6-------10p-0-9p-0-|-----------------------------|
--0----------7----------------|--0-----------------0--0--0--|
--0-------------8-------------|--0--0--0--0--0--0--0--0--0--|
--0---------------------------|--0--0--0--0--0--0--0--0--0--|


                                 PM PM PM PM PM
     |--3--|                     |--3--|
  E  S  S  S E  E  E  S  S    E  S  S  S  S  S  E  E  E
---------------------------|-----------------------------|
---------------------------|-----------------------------|
-----6h-7p-6---------------|-----------------------------|
--0----------7-------------|--0-----------------0--0--0--|
--0-------------8--7--4p-0-|--0--0--0--0--0--0--0--0--0--|
--0------------------------|--0--0--0--0--0--0--0--0--0--|


     |--3--|
  E  S  S  S E  E   S  S S  S    E.  E  S E  E  E      E.   E   S  E  E  E
------------------------------|--------------------|------------------------|
------------------------------|--------------------|------------------------|
-----6h-7p-6-------10p-0-9p-0-|--------------------|------------------------|
--0----------7----------------|--3---3--3-3--3--3--|--11---11--11-11--------|
--0-------------8-------------|--3---3--3-3--3--3--|---7----7---7--7--------|
--0---------------------------|--3---3--3-3--3--3--|---7----7---7--7--------|


  E.  E  S  E   E   E     E.  E  S E  E  E     E.  E  S  E   E   E
--0---0--0-------------|--0---0--0----------|--0---0--0-------------|
--6---6--6-10--10--10--|--6---6--6-5--5--5--|--6---6--6-10--10--10--|
--7---7--7--x---x---x--|--7---7--7-6--6--6--|--7---7--7--x---x---x--|
--0---0--0--8---8---8--|--0---0--0-5--5--5--|--0---0--0--8---8---8--|
-----------------------|--------------------|-----------------------|
-----------------------|--------------------|-----------------------|


  E.  E  S  E   E   E     E.  E  S  E   E   E     E.  E  S E  E  E
-----------------------|--0---0--0-------------|--0---0--0----------|
-----------14--14--14--|--6---6--6-10--10--10--|--6---6--6-5--5--5--|
------------x---x---x--|--7---7--7--x---x---x--|--7---7--7-6--6--6--|
--8---8--8-11--11--11--|--0---0--0--8---8---8--|--0---0--0-5--5--5--|
--8---8--8-------------|-----------------------|--------------------|
--8---8--8-------------|-----------------------|--------------------|


  E.  E  S  E   E   E     E.  E  S  E   E   E     E.  E  S  E   E   E
--0---0--0-------------|-----------------------|--0---0--0-------------|
--6---6--6-10--10--10--|-----------14--14--14--|--6---6--6-10--10--10--|
--7---7--7--x---x---x--|------------x---x---x--|--7---7--7--x---x---x--|
--0---0--0--8---8---8--|--8---8--8-11--11--11--|--0---0--0--8---8---8--|
-----------------------|--8---8--8-------------|-----------------------|
-----------------------|--8---8--8-------------|-----------------------|


           |--3--| |--3--|
  E.  E  S S  S  S S  S  S  E     E.  E  S E  E  E
--0---0--0---------3h-5h-6p-0--|--0---0--0----------|
--6---6--6-3h-5h-6-------------|--6---6--6-5--5--5--|
--7---7--7---------------------|--7---7--7-6--6--6--|
--0---0--0---------------------|--0---0--0-5--5--5--|
-------------------------------|--------------------|
-------------------------------|--------------------|


           |--3--| |--3--|
  E.  E  S S  S  S S  S  S E     E.  E  S  E   E   E
--0---0--0---------3h-5h-6----|--0---0--0-------------|
--6---6--6-3h-5h-6---------2--|--6---6--6-10--10--10--|
--7---7--7--------------------|--7---7--7--x---x---x--|
--0---0--0--------------------|--0---0--0--8---8---8--|
------------------------------|-----------------------|
------------------------------|-----------------------|


           |--3--| |--3--|
  E.  E  S S  S  S S  S  S  E     E.  E  S E  E  E
--0---0--0---------3h-5h-6p-0--|--0---0--0----------|
--6---6--6-3h-5h-6-------------|--6---6--6-5--5--5--|
--7---7--7---------------------|--7---7--7-6--6--6--|
--0---0--0---------------------|--0---0--0-5--5--5--|
-------------------------------|--------------------|
-------------------------------|--------------------|


           |--3--| |--3--|
  E.  E  S S  S  S S  S  S  E      E.   E   S E  E  E      E.   E   S E  E  E
--0---0--0---------3h-5h-6s-9--|-----------------------|-----------------------|
--6---6--6-3h-5h-6-------------|-----------------------|-----------------------|
--7---7--7---------------------|--10---10--10-7--7--7--|---9----9---9-6--6--6--|
--0---0--0---------------------|---x----x---x-x--x--x--|---x----x---x-x--x--x--|
-------------------------------|---8----8---8-5--5--5--|---7----7---7-4--4--4--|
-------------------------------|--12---12--12-8--8--8--|--10---10--10-7--7--7--|


                              |-3-|
   E.   E   S E  E  E      E  S S S E  E  Q        E.   E   S E  E  E
-----------------------|-----------------------|-----------------------|
-----------------------|-----------------------|-----------------------|
--10---10--10-7--7--7--|---9--x-x-x-7--6-------|--10---10--10-7--7--7--|
---x----x---x-x--x--x--|---x--x-x-x-x--x-------|---x----x---x-x--x--x--|
---8----8---8-5--5--5--|---7--x-x-x-5--4-------|---8----8---8-5--5--5--|
--12---12--12-8--8--8--|--10--x-x-x-8--7-------|--12---12--12-8--8--8--|


                                                      |-3-|
   E.   E   S E  E  E      E.   E   S E  E  E      E  S S S E  E  Q
-----------------------|-----------------------|-----------------------|
-----------------------|-----------------------|-----------------------|
---9----9---9-6--6--6--|--10---10--10-7--7--7--|---9--x-x-x-7--6-------|
---x----x---x-x--x--x--|---x----x---x-x--x--x--|---x--x-x-x-x--x-------|
---7----7---7-4--4--4--|---8----8---8-5--5--5--|---7--x-x-x-5--4-------|
--10---10--10-7--7--7--|--12---12--12-8--8--8--|--10--x-x-x-8--7-------|


   E.   E   S E   E  S S    E.  E  S E  E  S S     E.   E   S E   E  S S
-------------------------|---------------------|-------------------------|
-----------------10--8-0-|--------------8--5-0-|-----------------10--8-0-|
--10---10--10-9----------|--7---7--7-6---------|--10---10--10-9----------|
---x----x---x------------|--x---x--x-----------|---x----x---x------------|
---8----8---8------------|--5---5--5-----------|---8----8---8------------|
--12---12--12------------|--8---8--8-----------|--12---12--12------------|


  E.  E  S E  E  S S     E.   E   S E   E  S S    E.  E  S E  E  S S
---------------------|-------------------------|---------------------|
--------------8--5-0-|-----------------10--8-0-|--------------8--5-0-|
--7---7--7-6---------|--10---10--10-9----------|--7---7--7-6---------|
--x---x--x-----------|---x----x---x------------|--x---x--x-----------|
--5---5--5-----------|---8----8---8------------|--5---5--5-----------|
--8---8--8-----------|--12---12--12------------|--8---8--8-----------|


   E.   E   S E   E  S S     E   S  S  S  S   E   S  S  S  S
-------------------------|-----------------------------------|
-----------------10--8-0-|--11--11-11-11-11-/14--14-14-14-14-|
--10---10--10-9----------|-----------------------------------|
---x----x---x------------|-----------------------------------|
---8----8---8------------|-----------------------------------|
--12---12--12------------|-----------------------------------|


  |--3-|  |--3--|  |--3--|  |--3--|     |--3--|  |--3--|
  Q    E  E  E  E  E  E  E  E  E  E     E  E  E  E  E  E   E  E   Q
-------------------------------------|---------------------------------|
-------------------------------------|---------------------------------|
-------------------------------------|---------------------------------|
--0----0-----------------------------|---------------------------------|
--0----0--5--4--4--4--7--7--7--5--5--|--5--8--8--8--7--7--10--x--12----|
--0----0--3--2--2--2--5--5--5--3--3--|--3--7--7--7--5--5---8--x--11----|


  |--3-|  |--3--|  |--3--|  |--3--|     |--3--|  |--3--|
  Q    E  E  E  E  E  E  E  E  E  E     E  E  E  E  E  E   E  E   Q
-------------------------------------|---------------------------------|
-------------------------------------|---------------------------------|
-------------------------------------|---------------------------------|
--0----0-----------------------------|---------------------------------|
--0----0--5--4--4--4--7--7--7--5--5--|--5--8--8--8--7--7--10--x--12----|
--0----0--3--2--2--2--5--5--5--3--3--|--3--7--7--7--5--5---8--x--11----|


  |--3-|  |--3--|  |--3--|  |--3--|     |--3--|  |--3--|
  Q    E  E  E  E  E  E  E  E  E  E     E  E  E  E  E  E   E  E   Q
-------------------------------------|---------------------------------|
-------------------------------------|---------------------------------|
-------------------------------------|---------------------------------|
--0----0-----------------------------|---------------------------------|
--0----0--5--4--4--4--7--7--7--5--5--|--5--8--8--8--7--7--10--x--12----|
--0----0--3--2--2--2--5--5--5--3--3--|--3--7--7--7--5--5---8--x--11----|


  |--3-|  |--3--|  |--3--|  |--3--|     |--3--|  |--3--|
  Q    E  E  E  E  E  E  E  E  E  E     E  E  E  E  E  E   E  E   Q
-------------------------------------|---------------------------------|
-------------------------------------|---------------------------------|
-------------------------------------|---------------------------------|
--0----0-----------------------------|---------------------------------|
--0----0--5--4--4--4--7--7--7--5--5--|--5--8--8--8--7--7--10--x--12----|
--0----0--3--2--2--2--5--5--5--3--3--|--3--7--7--7--5--5---8--x--11----|


                                                      PM
  E.  E  S E  E  E      E.   E   S  E  Q       E.  E  S  E  E  E
--------------------|-----------------------|---------------------|
--------------------|-----------------------|---------------------|
--------------------|-----------------------|------------7--7--7--|
--3---3--3-3--3--3--|--11---11--11-11-------|--0---0--0--6--6--6--|
--3---3--3-3--3--3--|---7----7---7--7-------|--0---0--0--5--5--5--|
--3---3--3-3--3--3--|---7----7---7--7-------|--0---0--0-----------|


         PM                    PM                       PM
  E.  E  S  E  E  E     E.  E  S   E   E   E     E.  E  S  E  E  E
---------------------|------------------------|---------------------|
---------------------|------------------------|---------------------|
------------7--7--7--|------------10--10--10--|------------6--6--6--|
--0---0--0--6--6--6--|--3---3--3---9---9---9--|--2---2--2--5--5--5--|
--0---0--0--5--5--5--|--3---3--3---8---8---8--|--2---2--2--4--4--4--|
--0---0--0-----------|--3---3--3--------------|--2---2--2-----------|


         PM                    PM             PM PM PM PM PM
                                              |--3--|         |--3--|
  E.  E  S  E  E  E     E.  E  S  E  E  E     S  S  S  E  E   S  S  S  E   E
---------------------|---------------------|----------------------------------|
---------------------|---------------------|----------------------------------|
------------7--7--7--|------------7--7--7--|-----------------10-10-10-10--10--|
--0---0--0--6--6--6--|--0---0--0--6--6--6--|-----------3--3---9--9--9--9---9--|
--0---0--0--5--5--5--|--0---0--0--5--5--5--|--3--3--3--3--3---8--8--8--8---8--|
--0---0--0-----------|--0---0--0-----------|--3--3--3--3--3-------------------|


  PM PM PM PM PM
  |--3--|        |-3-|
  S  S  S  E  E  S S S E  E     E.  E  S E  E  E     E.  E  S E  E  E
-----------------------------|--------------------|--------------------|
-----------------------------|--------------------|--------------------|
-----------------6-6-6-6--6--|-----------7--7--7--|-----------7--7--7--|
-----------2--2--5-5-5-5--5--|--0---0--0-6--6--6--|--0---0--0-6--6--6--|
--2--2--2--2--2--4-4-4-4--4--|--0---0--0-5--5--5--|--0---0--0-5--5--5--|
--2--2--2--2--2--------------|--0---0--0----------|--0---0--0----------|


  E.  E  S  E   E   E     E.  E  S E  E  E     E.  E  S E  E  E
-----------------------|--------------------|--------------------|
-----------------------|--------------------|--------------------|
-----------10--10--10--|-----------6--6--6--|-----------7--7--7--|
--3---3--3--9---9---9--|--2---2--2-5--5--5--|--0---0--0-6--6--6--|
--3---3--3--8---8---8--|--2---2--2-4--4--4--|--0---0--0-5--5--5--|
--3---3--3-------------|--2---2--2----------|--0---0--0----------|


                       PM PM PM PM PM
                       |--3--|         |--3--|
  E.  E  S E  E  E     S  S  S  E  E   S  S  S  E   E
--------------------|----------------------------------|
--------------------|----------------------------------|
-----------7--7--7--|-----------------10-10-10-10--10--|
--0---0--0-6--6--6--|-----------3--3---9--9--9--9---9--|
--0---0--0-5--5--5--|--3--3--3--3--3---8--8--8--8---8--|
--0---0--0----------|--3--3--3--3--3-------------------|


  PM PM PM PM PM                   PM PM PM PM PM
  |--3--|        |-3-|             |--3--|
  S  S  S  E  E  S S S E  E     E  S  S  S  S  S  E  E  E
-----------------------------|-----------------------------|
-----------------------------|-----------------------------|
-----------------6-6-6-6--6--|-----------------------------|
-----------2--2--5-5-5-5--5--|--0-----------------0--0--0--|
--2--2--2--2--2--4-4-4-4--4--|--0--0--0--0--0--0--0--0--0--|
--2--2--2--2--2--------------|--0--0--0--0--0--0--0--0--0--|


                                 PM PM PM PM PM
     |--3--|                     |--3--|
  E  S  S  S E  E  E  S  S    E  S  S  S  S  S  E  E  E
---------------------------|-----------------------------|
---------------------------|-----------------------------|
-----6h-7p-6---------------|-----------------------------|
--0----------7-------------|--0-----------------0--0--0--|
--0-------------8--7--4p-0-|--0--0--0--0--0--0--0--0--0--|
--0------------------------|--0--0--0--0--0--0--0--0--0--|


                                    PM PM PM PM PM
     |--3--|                        |--3--|
  E  S  S  S E  E   S  S S  S    E  S  S  S  S  S  E  E  E
------------------------------|-----------------------------|
------------------------------|-----------------------------|
-----6h-7p-6-------10p-0-9p-0-|-----------------------------|
--0----------7----------------|--0-----------------0--0--0--|
--0-------------8-------------|--0--0--0--0--0--0--0--0--0--|
--0---------------------------|--0--0--0--0--0--0--0--0--0--|


                                 PM PM PM PM PM
     |--3--|                     |--3--|
  E  S  S  S E  E  E  S  S    E  S  S  S  S  S  E  E  E
---------------------------|-----------------------------|
---------------------------|-----------------------------|
-----6h-7p-6---------------|-----------------------------|
--0----------7-------------|--0-----------------0--0--0--|
--0-------------8--7--4p-0-|--0--0--0--0--0--0--0--0--0--|
--0------------------------|--0--0--0--0--0--0--0--0--0--|


     |--3--|
  E  S  S  S E  E   S  S S  S    E.  E  S E  E  E      E.   E   S  E  E  E
------------------------------|--------------------|------------------------|
------------------------------|--------------------|------------------------|
-----6h-7p-6-------10p-0-9p-0-|--------------------|------------------------|
--0----------7----------------|--3---3--3-3--3--3--|--11---11--11-11--------|
--0-------------8-------------|--3---3--3-3--3--3--|---7----7---7--7--------|
--0---------------------------|--3---3--3-3--3--3--|---7----7---7--7--------|


  H.              H.              H.              H.
---------------|---------------|--0------------|--L------------|
---------------|---------------|--6------------|--L------------|
---------------|---------------|--7------------|--L------------|
--0------------|--L------------|--L------------|--L------------|
--0------------|--L------------|--L------------|--L------------|
--0------------|--L------------|--L------------|--L------------|


  E  E  E  E  E  E     E  E  E  E  E  E     E  E  E  E  E  E
-----------0--------|-----------0--------|-----------0--------|
--------6-----6-----|--------6-----6-----|--------6-----6-----|
-----7-----------7--|-----7-----------7--|-----6-----------6--|
--0-----------------|--0-----------------|--------------------|
--------------------|--------------------|--4-----------------|
--------------------|--------------------|--------------------|


  E  E  E  E  E  E     E  E  E  E  E  E     E  E  E  E  E  E
-----------0--------|-----------0--------|-----------0--------|
--------6-----6-----|--------6-----6-----|--------6-----6-----|
-----6-----------6--|-----7-----------7--|-----7-----------7--|
--------------------|--0-----------------|--0-----------------|
--4-----------------|--------------------|--------------------|
--------------------|--------------------|--------------------|


  E  E  E  E  E  E     E  E  E  E  E  E
-----------0--------|-----------0--------||
--------6-----6-----|--------6-----6-----||
-----6-----------6--|-----6-----------6--||
--------------------|--------------------||
--4-----------------|--4-----------------||
--------------------|--------------------||


-------------------------------------------------|
-------------------------------------------------|

Guitar 2 (Lead)



D#||-------|-------|-------|-------|-------|-------|-------|-------|
A#||-------|-------|-------|-------|-------|-------|-------|-------|
F#||-------|-------|-------|-------|-------|-------|-------|-------|
C#||-------|-------|-------|-------|-------|-------|-------|-------|
G#||-------|-------|-------|-------|-------|-------|-------|-------|
C#||-------|-------|-------|-------|-------|-------|-------|-------|


                                                         |-3-|
  H.              H.              H.              Q.     S S S E  E
---------------|---------------|---------------|---------------------|
---------------|---------------|---------------|---------6-6-6-6--5--|
---------------|---------------|---------------|---------7-7-7-7--6--|
--0------------|--L------------|--0------------|--L------------------|
--0------------|--L------------|--0------------|--L------------------|
--0------------|--L------------|--0------------|--L------------------|


                                                   |--3--|
  H.              H.              H.               S  S  S  E  E  Q.
---------------|---------------|---------------|-------------------------|
---------------|---------------|---------------|--10-10-10-10--8---------|
---------------|---------------|---------------|--10-10-10-10--9---------|
--0------------|--L------------|--0------------|-------------------------|
--0------------|--L------------|--0------------|-------------------------|
--0------------|--L------------|--0------------|-------------------------|


  E.  E  S  E   E   E     E.  E  S  E  E    E       E.  E  S  E   E   E
-----------------------|-------------------------|-----------------------|
-----------------------|-------------------------|-----------------------|
-----------10--10--10--|-------------------------|-----------10--10--10--|
--0---0--0--8---8---8--|--0---0--0---------------|--0---0--0--8---8---8--|
--0---0--0--8---8---8--|--0---0--0-/8--7---------|--0---0--0--8---8---8--|
--0---0--0--8---8---8--|--0---0--0--------<>8b~--|--0---0--0--8---8---8--|


  S  S S S S  S S S  S S S  S    E.  E  S  E   E   E     E.  E  S   E  E  E
------------------------------|-----------------------|----------------------|
------------------------------|-----------------------|----------------------|
------------------------------|-----------10--10--10--|----------------------|
-----------------------7-8-10-|--0---0--0--8---8---8--|--0---0--0---------8--|
----10-8-7------7-8-10--------|--0---0--0--8---8---8--|--0---0--0-/10--8--7--|
--8--------8-10---------------|--0---0--0--8---8---8--|--0---0--0------------|


  E.  E  S  E   E   E
-----------------------|
-----------------------|
-----------10--10--10--|
--0---0--0--8---8---8--|
--0---0--0--8---8---8--|
--0---0--0--8---8---8--|


   |---3---|  |---3--|   |---3--|   |---3--|  |--3--|   |---3--|
   S   S   S  S   S  S   S   S  S   S   S  S  S  S  S   S   S  S
-------------------------------13h-17p-13------------------------|
--------------------13h-15h-17------------15---------------------|
-------------14h-15--------------------------14------------------|
--14h-15h-17------------------------------------15---------------|
---------------------------------------------------17p-13p-12----|
--------------------------------------------------------------15-|


                                      |--3--| |--3--|
   E.   E   S  E   E   E     E.  E  S S  S  S S  S  S  E
--------------------------|-------------------------------|
--------------------------|-------------------------------|
--------------10--10--10--|-------------------------------|
--12---12--12--8---8---8--|--0---0--0---------5h-7h-8p-0--|
--12---12--12--8---8---8--|--0---0--0-5h-7h-8-------------|
--12---12--12--8---8---8--|--0---0--0---------------------|


                                     |--3--| |--3--|
   E.   E   S   E  E  E     E.  E  S S  S  S S  S  S E
-------------------------|------------------------------|
-------------------------|------------------------------|
-------------------------|------------------------------|
--12---12--12---8--7--5--|--0---0--0---------5h-7h-8----|
--12---12--12-/10--8--7--|--0---0--0-5h-7h-8---------4--|
--12---12--12------------|--0---0--0--------------------|


                                      |--3--| |--3--|
   E.   E   S  E   E   E     E.  E  S S  S  S S  S  S  E
--------------------------|-------------------------------|
--------------------------|-------------------------------|
--------------10--10--10--|-------------------------------|
--12---12--12--8---8---8--|--0---0--0---------5h-7h-8p-0--|
--12---12--12--8---8---8--|--0---0--0-5h-7h-8-------------|
--12---12--12--8---8---8--|--0---0--0---------------------|


                                     |--3--| |--3--|
   E.   E   S  E  E   E     E.  E  S S  S  S S  S  S   E
-------------------------|--------------------------------|
-------------------------|--------------------------------|
-------------------------|--------------------------------|
--12---12--12--7--5---8--|--0---0--0---------5h-7h-8s-11--|
--12---12--12-/8--7--10--|--0---0--0-5h-7h-8--------------|
--12---12--12------------|--0---0--0----------------------|


   E.   E   S  E   E   E      E.   E   S E  E  E      E.   E   S  E   E   E
--------------------------|-----------------------|--------------------------|
--------------------------|-----------------------|--------------------------|
--14---14--14-10--10--10--|--12---12--12-9--9--9--|--14---14--14-10--10--10--|
---x----x---x--x---x---x--|---x----x---x-x--x--x--|---x----x---x--x---x---x--|
--12---12--12--8---8---8--|--10---10--10-7--7--7--|--12---12--12--8---8---8--|
--------------------------|-----------------------|--------------------------|


      |-3-|
   E  S S S  E  E  Q        E.   E   S  E   E   E      E.   E   S E  E  E
------------------------|--------------------------|-----------------------|
------------------------|--------------------------|-----------------------|
--12--x-x-x-10--9-------|--14---14--14-10--10--10--|--12---12--12-9--9--9--|
---x--x-x-x--x--x-------|---x----x---x--x---x---x--|---x----x---x-x--x--x--|
--10--x-x-x--8--7-------|--12---12--12--8---8---8--|--10---10--10-7--7--7--|
------x-x-x-------------|--------------------------|-----------------------|


                                 |-3-|
   E.   E   S  E   E   E      E  S S S  E  E  Q        E.   E   S E  E  S  S
--------------------------|------------------------|-----------------8--6p-0-|
--------------------------|------------------------|--------------8----------|
--14---14--14-10--10--10--|--12--x-x-x-10--9-------|--14---14--14------------|
---x----x---x--x---x---x--|---x--x-x-x--x--x-------|---x----x---x------------|
--12---12--12--8---8---8--|--10--x-x-x--8--7-------|--12---12--12------------|
--------------------------|------x-x-x-------------|-------------------------|


   E.   E   S E  E  S  S     E.   E   S E  E  S  S     E.   E   S E  E  S  S
-----------------6--3p-0-|-----------------8--6p-0-|-----------------6--3p-0-|
--------------5----------|--------------8----------|--------------5----------|
--10---10--10------------|--14---14--14------------|--10---10--10------------|
---x----x---x------------|---x----x---x------------|---x----x---x------------|
---8----8---8------------|--12---12--12------------|---8----8---8------------|
-------------------------|-------------------------|-------------------------|


   E.   E   S E  E  S  S     E.   E   S E  E  S  S     E.   E   S E  E  S  S
-----------------8--6p-0-|-----------------6--3p-0-|-----------------8--6p-0-|
--------------8----------|--------------5----------|--------------8----------|
--14---14--14------------|--10---10--10------------|--14---14--14------------|
---x----x---x------------|---x----x---x------------|---x----x---x------------|
--12---12--12------------|---8----8---8------------|--12---12--12------------|
-------------------------|-------------------------|-------------------------|


                                      |--3-|  |--3--|  |--3--|  |--3--|
   E   S  S  S  S   E   S  S  S  S    Q    E  E  E  E  E  E  E  E  E  E
--10--10-10-10-10-/12--12-12-12-12-|-------------------------------------|
-----------------------------------|-------------------------------------|
-----------------------------------|-------------------------------------|
-----------------------------------|--0----0-----------------------------|
-----------------------------------|--0----0--5--4--4--4--7--7--7--5--5--|
-----------------------------------|--0----0--3--2--2--2--5--5--5--3--3--|


  |--3--|  |--3--|                  |--3-|  |--3--|  |--3--|  |--3--|
  E  E  E  E  E  E   E  E   Q       Q    E  E  E  E  E  E  E  E  E  E
---------------------------------|-------------------------------------|
---------------------------------|-------------------------------------|
---------------------------------|-------------------------------------|
---------------------------------|--0----0-----------------------------|
--5--8--8--8--7--7--10--x--12----|--0----0--5--4--4--4--7--7--7--5--5--|
--3--7--7--7--5--5---8--x--11----|--0----0--3--2--2--2--5--5--5--3--3--|


  |--3--|  |--3--|
  E  E  E  E  E  E   E  E   Q
---------------------------------|
---------------------------------|
---------------------------------|
---------------------------------|
--5--8--8--8--7--7--10--x--12----|
--3--7--7--7--5--5---8--x--11----|


  |--3-|    |---3--|  |----3---|   |----3---|
  Q    E    E   E  E  E    E   E   E    E   E
-----------------------------------------------|
-----------------------------------------------|
--7----7s--10s--9--9--9s--12--12--12s--10--10--|
--x----x----x---x--x--x----x---x---x----x---x--|
--5----5s---8s--7--7--7s--10--10--10s---8---8--|
-----------------------------------------------|


   |----3---|   |----3---|
   E    E   E   E    E   E   E  E   Q
-----------------------------------------|
-----------------------------------------|
--10s--14--14--14s--12--12--15--x--18----|
---x----x---x---x----x---x---x--x---x----|
---8s--12--12--12s--10--10--13--x--16----|
-----------------------------------------|


  |--3-|    |---3--|  |----3---|   |----3---|
  Q    E    E   E  E  E    E   E   E    E   E
-----------------------------------------------|
-----------------------------------------------|
--7----7s--10s--9--9--9s--12--12--12s--10--10--|
--x----x----x---x--x--x----x---x---x----x---x--|
--5----5s---8s--7--7--7s--10--10--10s---8---8--|
-----------------------------------------------|


   |----3---|   |----3---|
   E    E   E   E    E   E   E  E   Q       E.  E  S E  E  E
-----------------------------------------|--------------------|
-----------------------------------------|--------------------|
--10s--14--14--14s--12--12--15--x--18----|--------------------|
---x----x---x---x----x---x---x--x---x----|--3---3--3-3--3--3--|
---8s--12--12--12s--10--10--13--x--16----|--3---3--3-3--3--3--|
-----------------------------------------|--3---3--3-3--3--3--|


                                 PM                       PM
   E.   E   S  E  Q       E.  E  S   E   E   E     E.  E  S   E   E   E
-----------------------|------------------------|------------------------|
-----------------------|------------------------|------------------------|
-----------------------|------------14--14--14--|------------14--14--14--|
--11---11--11-11-------|--0---0--0--13--13--13--|--0---0--0--13--13--13--|
---7----7---7--7-------|--0---0--0--12--12--12--|--0---0--0--12--12--12--|
---7----7---7--7-------|--0---0--0--------------|--0---0--0--------------|


         PM                       PM                       PM
  E.  E  S   E   E   E     E.  E  S   E   E   E     E.  E  S   E   E   E
------------------------|------------------------|------------------------|
------------------------|------------------------|------------------------|
------------17--17--17--|------------13--13--13--|------------14--14--14--|
--3---3--3--16--16--16--|--2---2--2--12--12--12--|--0---0--0--13--13--13--|
--3---3--3--15--15--15--|--2---2--2--11--11--11--|--0---0--0--12--12--12--|
--3---3--3--------------|--2---2--2--------------|--0---0--0--------------|


         PM                PM PM PM PM PM
                           |--3--|         |--3--|
  E.  E  S   E   E   E     S  S  S  E  E   S  S  S  E   E
------------------------|----------------------------------|
------------------------|----------------------------------|
------------14--14--14--|-----------------17-17-17-17--17--|
--0---0--0--13--13--13--|-----------3--3--16-16-16-16--16--|
--0---0--0--12--12--12--|--3--3--3--3--3--15-15-15-15--15--|
--0---0--0--------------|--3--3--3--3--3-------------------|


  PM PM PM PM PM
  |--3--|         |--3--|
  S  S  S  E  E   S  S  S  E   E     E.  E  S  E   E   E
----------------------------------|-----------------------|
----------------------------------|-----------------------|
-----------------13-13-13-13--13--|-----------14--14--14--|
-----------2--2--12-12-12-12--12--|--0---0--0-13--13--13--|
--2--2--2--2--2--11-11-11-11--11--|--0---0--0-12--12--12--|
--2--2--2--2--2-------------------|--0---0--0-------------|


  E.  E  S  E   E   E     E.  E  S  E   E   E     E.  E  S  E   E   E
-----------------------|-----------------------|-----------------------|
-----------------------|-----------------------|-----------------------|
-----------14--14--14--|-----------17--17--17--|-----------13--13--13--|
--0---0--0-13--13--13--|--3---3--3-16--16--16--|--2---2--2-12--12--12--|
--0---0--0-12--12--12--|--3---3--3-15--15--15--|--2---2--2-11--11--11--|
--0---0--0-------------|--3---3--3-------------|--2---2--2-------------|


  E.  E  S  E   E   E     E.  E  S  E   E   E
-----------------------|-----------------------|
-----------------------|-----------------------|
-----------14--14--14--|-----------14--14--14--|
--0---0--0-13--13--13--|--0---0--0-13--13--13--|
--0---0--0-12--12--12--|--0---0--0-12--12--12--|
--0---0--0-------------|--0---0--0-------------|


  PM PM PM PM PM                     PM PM PM PM PM
  |--3--|         |--3--|            |--3--|         |--3--|
  S  S  S  E  E   S  S  S  E   E     S  S  S  E  E   S  S  S  E   E
----------------------------------|----------------------------------|
----------------------------------|----------------------------------|
-----------------17-17-17-17--17--|-----------------13-13-13-13--13--|
-----------3--3--16-16-16-16--16--|-----------2--2--12-12-12-12--12--|
--3--3--3--3--3--15-15-15-15--15--|--2--2--2--2--2--11-11-11-11--11--|
--3--3--3--3--3-------------------|--2--2--2--2--2-------------------|


     PM PM PM PM PM
     |--3--|                       |--3--|
  E  S  S  S  S  S  E  E  E     E  S  S  S E  E   E  S  S
-----------------------------|----------------------------|
-----------------------------|-----5h-6p-5----------------|
-----------------------------|-------------6--------------|
--0-----------------0--0--0--|--0-------------7p--5--2p-0-|
--0--0--0--0--0--0--0--0--0--|--0-------------------------|
--0--0--0--0--0--0--0--0--0--|--0-------------------------|


     PM PM PM PM PM
     |--3--|                       |--3--|
  E  S  S  S  S  S  E  E  E     E  S  S  S E  E   S  S S  S
-----------------------------|------------------------------|
-----------------------------|-----5h-6p-5-------10p-0-8p-0-|
-----------------------------|-------------6----------------|
--0-----------------0--0--0--|--0-------------7-------------|
--0--0--0--0--0--0--0--0--0--|--0---------------------------|
--0--0--0--0--0--0--0--0--0--|--0---------------------------|


     PM PM PM PM PM
     |--3--|                       |--3--|
  E  S  S  S  S  S  E  E  E     E  S  S  S E  E   E  S  S
-----------------------------|----------------------------|
-----------------------------|-----5h-6p-5----------------|
-----------------------------|-------------6--------------|
--0-----------------0--0--0--|--0-------------7p--5--2p-0-|
--0--0--0--0--0--0--0--0--0--|--0-------------------------|
--0--0--0--0--0--0--0--0--0--|--0-------------------------|


     PM PM PM PM PM
     |--3--|                       |--3--|
  E  S  S  S  S  S  E  E  E     E  S  S  S E  E   S  S S  S
-----------------------------|------------------------------|
-----------------------------|-----5h-6p-5-------10p-0-8p-0-|
-----------------------------|-------------6----------------|
--0-----------------0--0--0--|--0-------------7-------------|
--0--0--0--0--0--0--0--0--0--|--0---------------------------|
--0--0--0--0--0--0--0--0--0--|--0---------------------------|


  E.  E  S E  E  E      E.   E   S  E  E  E     E.  E  S  E   E   E
--------------------|------------------------|-----------------------|
--------------------|------------------------|-----------------------|
--------------------|------------------------|-----------10--10--10--|
--3---3--3-3--3--3--|--11---11--11-11--------|--0---0--0--8---8---8--|
--3---3--3-3--3--3--|---7----7---7--7--------|--0---0--0--8---8---8--|
--3---3--3-3--3--3--|---7----7---7--7--------|--0---0--0--8---8---8--|


  E.  E  S  E  E    E       E.  E  S  E   E   E
-------------------------|-----------------------|
-------------------------|-----------------------|
-------------------------|-----------10--10--10--|
--0---0--0---------------|--0---0--0--8---8---8--|
--0---0--0-/8--7---------|--0---0--0--8---8---8--|
--0---0--0--------<>8b~--|--0---0--0--8---8---8--|


  S  S S S S  S S S  S S S  S    E.  E  S  E   E   E     E.  E  S   E  E  E
------------------------------|-----------------------|----------------------|
------------------------------|-----------------------|----------------------|
------------------------------|-----------10--10--10--|----------------------|
-----------------------7-8-10-|--0---0--0--8---8---8--|--0---0--0---------8--|
----10-8-7------7-8-10--------|--0---0--0--8---8---8--|--0---0--0-/10--8--7--|
--8--------8-10---------------|--0---0--0--8---8---8--|--0---0--0------------|


  E.  E  S  E   E   E
-----------------------|
-----------------------|
-----------10--10--10--|
--0---0--0--8---8---8--|
--0---0--0--8---8---8--|
--0---0--0--8---8---8--|


   |---3---|  |---3--|   |---3--|   |---3--|  |--3--|   |---3--|
   S   S   S  S   S  S   S   S  S   S   S  S  S  S  S   S   S  S
-------------------------------13h-17p-13------------------------|
--------------------13h-15h-17------------15---------------------|
-------------14h-15--------------------------14------------------|
--14h-15h-17------------------------------------15---------------|
---------------------------------------------------17p-13p-12----|
--------------------------------------------------------------15-|


                                      |--3--| |--3--|
   E.   E   S  E   E   E     E.  E  S S  S  S S  S  S  E
--------------------------|-------------------------------|
--------------------------|-------------------------------|
--------------10--10--10--|-------------------------------|
--12---12--12--8---8---8--|--0---0--0---------5h-7h-8p-0--|
--12---12--12--8---8---8--|--0---0--0-5h-7h-8-------------|
--12---12--12--8---8---8--|--0---0--0---------------------|


                                     |--3--| |--3--|
   E.   E   S   E  E  E     E.  E  S S  S  S S  S  S E
-------------------------|------------------------------|
-------------------------|------------------------------|
-------------------------|------------------------------|
--12---12--12---8--7--5--|--0---0--0---------5h-7h-8----|
--12---12--12-/10--8--7--|--0---0--0-5h-7h-8---------4--|
--12---12--12------------|--0---0--0--------------------|


                                      |--3--| |--3--|
   E.   E   S  E   E   E     E.  E  S S  S  S S  S  S  E
--------------------------|-------------------------------|
--------------------------|-------------------------------|
--------------10--10--10--|-------------------------------|
--12---12--12--8---8---8--|--0---0--0---------5h-7h-8p-0--|
--12---12--12--8---8---8--|--0---0--0-5h-7h-8-------------|
--12---12--12--8---8---8--|--0---0--0---------------------|


                                     |--3--| |--3--|
   E.   E   S  E  E   E     E.  E  S S  S  S S  S  S   E
-------------------------|--------------------------------|
-------------------------|--------------------------------|
-------------------------|--------------------------------|
--12---12--12--7--5---8--|--0---0--0---------5h-7h-8s-11--|
--12---12--12-/8--7--10--|--0---0--0-5h-7h-8--------------|
--12---12--12------------|--0---0--0----------------------|


   E.   E   S  E   E   E      E.   E   S E  E  E      E.   E   S  E   E   E
--------------------------|-----------------------|--------------------------|
--------------------------|-----------------------|--------------------------|
--14---14--14-10--10--10--|--12---12--12-9--9--9--|--14---14--14-10--10--10--|
---x----x---x--x---x---x--|---x----x---x-x--x--x--|---x----x---x--x---x---x--|
--12---12--12--8---8---8--|--10---10--10-7--7--7--|--12---12--12--8---8---8--|
--------------------------|-----------------------|--------------------------|


      |-3-|
   E  S S S  E  E  Q        E.   E   S  E   E   E      E.   E   S E  E  E
------------------------|--------------------------|-----------------------|
------------------------|--------------------------|-----------------------|
--12--x-x-x-10--9-------|--14---14--14-10--10--10--|--12---12--12-9--9--9--|
---x--x-x-x--x--x-------|---x----x---x--x---x---x--|---x----x---x-x--x--x--|
--10--x-x-x--8--7-------|--12---12--12--8---8---8--|--10---10--10-7--7--7--|
------x-x-x-------------|--------------------------|-----------------------|


                                 |-3-|
   E.   E   S  E   E   E      E  S S S  E  E  Q        E.   E   S E  E  S  S
--------------------------|------------------------|-----------------8--6p-0-|
--------------------------|------------------------|--------------8----------|
--14---14--14-10--10--10--|--12--x-x-x-10--9-------|--14---14--14------------|
---x----x---x--x---x---x--|---x--x-x-x--x--x-------|---x----x---x------------|
--12---12--12--8---8---8--|--10--x-x-x--8--7-------|--12---12--12------------|
--------------------------|------x-x-x-------------|-------------------------|


   E.   E   S E  E  S  S     E.   E   S E  E  S  S     E.   E   S E  E  S  S
-----------------6--3p-0-|-----------------8--6p-0-|-----------------6--3p-0-|
--------------5----------|--------------8----------|--------------5----------|
--10---10--10------------|--14---14--14------------|--10---10--10------------|
---x----x---x------------|---x----x---x------------|---x----x---x------------|
---8----8---8------------|--12---12--12------------|---8----8---8------------|
-------------------------|-------------------------|-------------------------|


   E.   E   S E  E  S  S     E.   E   S E  E  S  S     E.   E   S E  E  S  S
-----------------8--6p-0-|-----------------6--3p-0-|-----------------8--6p-0-|
--------------8----------|--------------5----------|--------------8----------|
--14---14--14------------|--10---10--10------------|--14---14--14------------|
---x----x---x------------|---x----x---x------------|---x----x---x------------|
--12---12--12------------|---8----8---8------------|--12---12--12------------|
-------------------------|-------------------------|-------------------------|


                                      |--3-|  |--3--|  |--3--|  |--3--|
   E   S  S  S  S   E   S  S  S  S    Q    E  E  E  E  E  E  E  E  E  E
--10--10-10-10-10-/12--12-12-12-12-|-------------------------------------|
-----------------------------------|-------------------------------------|
-----------------------------------|-------------------------------------|
-----------------------------------|--0----0-----------------------------|
-----------------------------------|--0----0--5--4--4--4--7--7--7--5--5--|
-----------------------------------|--0----0--3--2--2--2--5--5--5--3--3--|


  |--3--|  |--3--|                  |--3-|  |--3--|  |--3--|  |--3--|
  E  E  E  E  E  E   E  E   Q       Q    E  E  E  E  E  E  E  E  E  E
---------------------------------|-------------------------------------|
---------------------------------|-------------------------------------|
---------------------------------|-------------------------------------|
---------------------------------|--0----0-----------------------------|
--5--8--8--8--7--7--10--x--12----|--0----0--5--4--4--4--7--7--7--5--5--|
--3--7--7--7--5--5---8--x--11----|--0----0--3--2--2--2--5--5--5--3--3--|


  |--3--|  |--3--|
  E  E  E  E  E  E   E  E   Q
---------------------------------|
---------------------------------|
---------------------------------|
---------------------------------|
--5--8--8--8--7--7--10--x--12----|
--3--7--7--7--5--5---8--x--11----|


  |--3-|    |---3--|  |----3---|   |----3---|
  Q    E    E   E  E  E    E   E   E    E   E
-----------------------------------------------|
-----------------------------------------------|
--7----7s--10s--9--9--9s--12--12--12s--10--10--|
--x----x----x---x--x--x----x---x---x----x---x--|
--5----5s---8s--7--7--7s--10--10--10s---8---8--|
-----------------------------------------------|


   |----3---|   |----3---|
   E    E   E   E    E   E   E  E   Q
-----------------------------------------|
-----------------------------------------|
--10s--14--14--14s--12--12--15--x--18----|
---x----x---x---x----x---x---x--x---x----|
---8s--12--12--12s--10--10--13--x--16----|
-----------------------------------------|


  |--3-|    |---3--|  |----3---|   |----3---|
  Q    E    E   E  E  E    E   E   E    E   E
-----------------------------------------------|
-----------------------------------------------|
--7----7s--10s--9--9--9s--12--12--12s--10--10--|
--x----x----x---x--x--x----x---x---x----x---x--|
--5----5s---8s--7--7--7s--10--10--10s---8---8--|
-----------------------------------------------|


   |----3---|   |----3---|
   E    E   E   E    E   E   E  E   Q       E.  E  S E  E  E
-----------------------------------------|--------------------|
-----------------------------------------|--------------------|
--10s--14--14--14s--12--12--15--x--18----|--------------------|
---x----x---x---x----x---x---x--x---x----|--3---3--3-3--3--3--|
---8s--12--12--12s--10--10--13--x--16----|--3---3--3-3--3--3--|
-----------------------------------------|--3---3--3-3--3--3--|


                                 PM                       PM
   E.   E   S  E  Q       E.  E  S   E   E   E     E.  E  S   E   E   E
-----------------------|------------------------|------------------------|
-----------------------|------------------------|------------------------|
-----------------------|------------14--14--14--|------------14--14--14--|
--11---11--11-11-------|--0---0--0--13--13--13--|--0---0--0--13--13--13--|
---7----7---7--7-------|--0---0--0--12--12--12--|--0---0--0--12--12--12--|
---7----7---7--7-------|--0---0--0--------------|--0---0--0--------------|


         PM                       PM                       PM
  E.  E  S   E   E   E     E.  E  S   E   E   E     E.  E  S   E   E   E
------------------------|------------------------|------------------------|
------------------------|------------------------|------------------------|
------------17--17--17--|------------13--13--13--|------------14--14--14--|
--3---3--3--16--16--16--|--2---2--2--12--12--12--|--0---0--0--13--13--13--|
--3---3--3--15--15--15--|--2---2--2--11--11--11--|--0---0--0--12--12--12--|
--3---3--3--------------|--2---2--2--------------|--0---0--0--------------|


         PM                PM PM PM PM PM
                           |--3--|         |--3--|
  E.  E  S   E   E   E     S  S  S  E  E   S  S  S  E   E
------------------------|----------------------------------|
------------------------|----------------------------------|
------------14--14--14--|-----------------17-17-17-17--17--|
--0---0--0--13--13--13--|-----------3--3--16-16-16-16--16--|
--0---0--0--12--12--12--|--3--3--3--3--3--15-15-15-15--15--|
--0---0--0--------------|--3--3--3--3--3-------------------|


  PM PM PM PM PM
  |--3--|         |--3--|
  S  S  S  E  E   S  S  S  E   E     E.  E  S  E   E   E
----------------------------------|-----------------------|
----------------------------------|-----------------------|
-----------------13-13-13-13--13--|-----------14--14--14--|
-----------2--2--12-12-12-12--12--|--0---0--0-13--13--13--|
--2--2--2--2--2--11-11-11-11--11--|--0---0--0-12--12--12--|
--2--2--2--2--2-------------------|--0---0--0-------------|


  E.  E  S  E   E   E     E.  E  S  E   E   E     E.  E  S  E   E   E
-----------------------|-----------------------|-----------------------|
-----------------------|-----------------------|-----------------------|
-----------14--14--14--|-----------17--17--17--|-----------13--13--13--|
--0---0--0-13--13--13--|--3---3--3-16--16--16--|--2---2--2-12--12--12--|
--0---0--0-12--12--12--|--3---3--3-15--15--15--|--2---2--2-11--11--11--|
--0---0--0-------------|--3---3--3-------------|--2---2--2-------------|


  E.  E  S  E   E   E     E.  E  S  E   E   E
-----------------------|-----------------------|
-----------------------|-----------------------|
-----------14--14--14--|-----------14--14--14--|
--0---0--0-13--13--13--|--0---0--0-13--13--13--|
--0---0--0-12--12--12--|--0---0--0-12--12--12--|
--0---0--0-------------|--0---0--0-------------|


  PM PM PM PM PM                     PM PM PM PM PM
  |--3--|         |--3--|            |--3--|         |--3--|
  S  S  S  E  E   S  S  S  E   E     S  S  S  E  E   S  S  S  E   E
----------------------------------|----------------------------------|
----------------------------------|----------------------------------|
-----------------17-17-17-17--17--|-----------------13-13-13-13--13--|
-----------3--3--16-16-16-16--16--|-----------2--2--12-12-12-12--12--|
--3--3--3--3--3--15-15-15-15--15--|--2--2--2--2--2--11-11-11-11--11--|
--3--3--3--3--3-------------------|--2--2--2--2--2-------------------|


     PM PM PM PM PM
     |--3--|                       |--3--|
  E  S  S  S  S  S  E  E  E     E  S  S  S E  E   E  S  S
-----------------------------|----------------------------|
-----------------------------|-----5h-6p-5----------------|
-----------------------------|-------------6--------------|
--0-----------------0--0--0--|--0-------------7p--5--2p-0-|
--0--0--0--0--0--0--0--0--0--|--0-------------------------|
--0--0--0--0--0--0--0--0--0--|--0-------------------------|


     PM PM PM PM PM
     |--3--|                       |--3--|
  E  S  S  S  S  S  E  E  E     E  S  S  S E  E   S  S S  S
-----------------------------|------------------------------|
-----------------------------|-----5h-6p-5-------10p-0-8p-0-|
-----------------------------|-------------6----------------|
--0-----------------0--0--0--|--0-------------7-------------|
--0--0--0--0--0--0--0--0--0--|--0---------------------------|
--0--0--0--0--0--0--0--0--0--|--0---------------------------|


     PM PM PM PM PM
     |--3--|                       |--3--|
  E  S  S  S  S  S  E  E  E     E  S  S  S E  E   E  S  S
-----------------------------|----------------------------|
-----------------------------|-----5h-6p-5----------------|
-----------------------------|-------------6--------------|
--0-----------------0--0--0--|--0-------------7p--5--2p-0-|
--0--0--0--0--0--0--0--0--0--|--0-------------------------|
--0--0--0--0--0--0--0--0--0--|--0-------------------------|


     PM PM PM PM PM
     |--3--|                       |--3--|
  E  S  S  S  S  S  E  E  E     E  S  S  S E  E   S  S S  S
-----------------------------|------------------------------|
-----------------------------|-----5h-6p-5-------10p-0-8p-0-|
-----------------------------|-------------6----------------|
--0-----------------0--0--0--|--0-------------7-------------|
--0--0--0--0--0--0--0--0--0--|--0---------------------------|
--0--0--0--0--0--0--0--0--0--|--0---------------------------|


  E.  E  S E  E  E      E.   E   S  E  E  E     H.              H.
--------------------|------------------------|---------------|---------------|
--------------------|------------------------|---------------|---------------|
--------------------|------------------------|---------------|---------------|
--3---3--3-3--3--3--|--11---11--11-11--------|--0------------|--L------------|
--3---3--3-3--3--3--|---7----7---7--7--------|--0------------|--L------------|
--3---3--3-3--3--3--|---7----7---7--7--------|--0------------|--L------------|


  H.              H.              H.              H.              H.
---------------|---------------|---------------|---------------|---------------|
---------------|---------------|---------------|---------------|---------------|
---------------|---------------|---------------|---------------|---------------|
--L------------|--L------------|--0------------|--L------------|--L------------|
--L------------|--L------------|--0------------|--L------------|--L------------|
--L------------|--L------------|--0------------|--L------------|--L------------|


  H.              H.              H.              H.
---------------|---------------|---------------|---------------|
---------------|---------------|---------------|---------------|
---------------|---------------|---------------|---------------|
--L------------|--0------------|--L------------|--L------------|
--L------------|--0------------|--L------------|--L------------|
--L------------|--0------------|--L------------|--L------------|


  H.
---------------||
---------------||
---------------||
--L------------||
--L------------||
--L------------||




Duration Legend
---------------
W - whole
H - half
Q - quarter
E - 8th
S - 16th
T - 32nd
X - 64th
. - note dotted
|-n-|  - n-tuplets


Tablature Legend
----------------
L - tied note
x - dead note
g - grace note
(n) - ghost note
> - accentuded note
NH - natural harmonic
AH - artificial harmonic
TH - tapped harmonic
SH - semi harmonic
PH - pitch harmonic
h - hammer on
p - pull off
b - bend
br - bendRelease
pb - preBend
pbr - preBendRelease
brb - bendReleaseBend
\n/ - tremolo bar dip
\n - tremolo bar dive
-/n - tremolo bar Release up
/n\ - tremolo bar inverted dip
/n - tremolo bar return
-\n - tremolo bar Release down
S - shift slide
s - legato slide
/ -  slide into from below or out of upwards
\ -  slide into from above or out of downwards
~ - vibrato
W - wide vibrato
tr - trill
TP - tremolo picking
T - tapping
S - slap
P - pop
< - fade in
^ - brush up
v - brush down
Tap to rate this tab
 
# A B C D E F G H I J K L M N O P Q R S T U V W X Y Z