Song name
# A B C D E F G H I J K L M N O P Q R S T U V W X Y Z

Misc Unsigned Bands - Black Edge - Forgotten tab

d-10--10--10--10--5-5-6-6-8--8---|
a---10--10--10--10-6-6-8-8-10-10-| REPEAT 2x
d--------------------------------|
g--------------------------------|
b--------------------------------|
e--------------------------------|

d-10/-5-6-5--5-6-8--10/-5-6-5--5-6-8--10/-5-6-5--5-6-8----|
a-10/-5-6-5--5-6-8--10/-5-6-5--5-6-8--10/-5-6-5--5-6-8----|
d-10/-5-6-5--5-6-8--10/-5-6-5--5-6-8--10/-5-6-5--5-6-8----|
g---------------------------------------------------------|
b---------------------------------------------------------|
e---------------------------------------------------------|

Then repeat the first part again 2x

d-10/-5-6-5--5-6-8---------------|
a-10/-5-6-5--5-6-8---------------|REPEAT 3x
d-10/-5-6-5--5-6-8---------------|
g--------------------------------|
b--------------------------------|
e--------------------------------|
Tap to rate this tab
# A B C D E F G H I J K L M N O P Q R S T U V W X Y Z