Song name
# A B C D E F G H I J K L M N O P Q R S T U V W X Y Z

Misc Unsigned Bands - District 24 - Called You All Night tab

DISTRICT 24 - CALLED YOU ALL NIGHT

This was the first song we ever made, haha. It honestly think it sounds good.


INTRO/VERSE (played throughout the whole song)

--------------------------------------------------------------|
--------------------------------------------------------------|
--------------------------------------------------------------|
----------------4-0-4-0-4-0-4-0-------------------------------|
4-0-4-0-4-0-4-0-----------------4-0-4-0-4-0-4-0---------------|
--------------------------------------------------------------|

---------------------------------------------------|
---------------------------------------------------|
---------------------------------------------------|
---------------------------------------------------|
---------------------------------------------------|
4-0-4-0-4-0-4-0------------------------------------|

After twice played, bass and lead guitar hops in and it goes:

Lead guitar:


-------------2-2-2-2-------------------------------------------------|
2-2-2-2------3-3-3-3-----2-2-2-2-----0-0-0-0-------------------------|
2-2-2-2------2-2-2-2-----2-2-2-2-----1-1-1-1-------------------------|
2-2-2-2------0-0-0-0-----2-2-2-2-----2-2-2-2-------------------------|
0-0-0-0------------------0-0-0-0-----2-2-2-2-------------------------|
---------------------------------------------------------------------|

Bass guitar (if you don't have a bass then just follow intro)

--------------------------------------------------------------------|
----------------4-4-4-4-4-4-4-4-------------------------------------|
4 4-4-4-4-4-4-4------------------4-4-4-4-4-4-4-4--------------------|
-------------------------------------------------4-4-4-4-4-4-4-4----|

And I think thats it. This was our very first song, like not even kidding. It sounds 
weird but in a good way.
Tap to rate this tab
 
# A B C D E F G H I J K L M N O P Q R S T U V W X Y Z