Song name
# A B C D E F G H I J K L M N O P Q R S T U V W X Y Z

Misc Unsigned Bands - District 24 - Only Stupid tab

DISTRICT 24 - ONLY STUPID

I hope you guys like this one!

Intro:

-------------------------------------------------|
-------------------------------------------------|
6-X-X-X-X-6-X-X-X-X--9-/-8-/-7-------------------|
6-X-X-X-X-6-X-X-X-X--9-/-8-/-7-------------------|
4-X-X-X-X-4-X-X-X-X--7-/-6-/-5-------------------|
-------------------------------------------------|    X4


 VERSES:

-----------------------------------------------------------|
-----------------------------------------------------------|
6---------3------------------------------------------------|
6---------3----------4--------6----------------------------|
4-4-4-4-4-1-1-1-1-1--4--------6----------------------------|
---------------------2-2-2-2--4-4-4-4-4--------------------|

CHORUS:

------------------------------------------------------|
------------------------------------------------------|
6-X-6-6-6--3-X-3-3-3-3--------------------------------|
6-X-6-6-6--3-X-3-3-3-3--4-X-4-4-4-4--6-X-6-6-6-6------|
4-X-4-4-4--1-X-1-1-1-1--4-X-4-4-4-4--6-X-6-6-6-6------|
------------------------2-X-2-2-2-2--4-X-4-4-4-4------|

LYRICS:

Verse1:

Who am  I kidding
My brain is only pudding
I'm stupid and I know it
And i'm ain't gunna throw a fit

Chorus:

Losing it all
Out of control
No one can help me
Not even therapy
I can't stand this anymore
So i'll just lock my door
I'll see you later
in the underworld, yeah.

2nd verse:

I can't even think
My thoughts are only dink
My pencil has no lead
and my brain is just as dead
I can't think straight
So i'll just go m*********

Repeat chorus.


+--------------------------------------------------------------------------+
| This file is the author's own work and represents their interpretation   |
| of the song. You may only use this file for private study, scholarship,  |
| or research.                                                             |
+--------------------------------------------------------------------------+

Thanks for looking at this!
Tap to rate this tab
 
# A B C D E F G H I J K L M N O P Q R S T U V W X Y Z