Song name
# A B C D E F G H I J K L M N O P Q R S T U V W X Y Z

Misc Unsigned Bands - District 24 - On My Own tab

DISTRICT 24 - ON MY OWN

I've been working pretty hard on this one, and I finally got it done. Here it is:

Note: Rythmn plays notes hard.

INTRO:

----------------------------------------------------|
--5-----5-----5----5-----3----3-----2-----2---------|
----6-----6-----4----4-----2----2-----2-----2-------|
7-----7-----6-----6----4-----4----------2-----------|
----------------------------------0-----------------|
----------------------------------------------------| X2 no singing


VERSE:

 "I'm on my own, and I feel alone..."
----------------------------------------------------|
--5-----5-----5----5-----3----3-----2-----2---------|
----6-----6-----4----4-----2----2-----2-----2-------|
7-----7-----6-----6----4-----4----------2-----------|
----------------------------------0-----------------|
----------------------------------------------------|X2 singing.

AFTER VERSE:

-------------------------------------------------------|
5*-----------------------------------------------------|
6*-----------------------------------------------------|
7*-----------------------------------------------------|
-------------------------------------------------------|
-------------------------------------------------------|

SECOND/THIRD VERSE:

-----------------------------------------------------------------|
9-9-9-9----------------------------------------------------------|
9-9-9-9-9-9-9-9--------------------------------------------------|
7-7-7-7-9-9-9-9-9-9-9-9-7-7-7-7----------------------------------|
--------7-7-7-7-9-9-9-9-7-7-7-7----------------------------------|
----------------7-7-7-7-5-5-5-5----------------------------------|  X2

PRE-CHORUS:

----------------------------------------------------------|
----------------------------------------------------------|
----------------------------------------------------------|
7---7---7---6---6---6---6---------------------------------|
7---7---7---6---6---6---6---------------------------------|
5-5-5-5-5-5-4-4-4-4-4-4-4---------------------------------| x2

CHORUS:

------------------------------------------------------------|
------------------------------------------------------------|
6-6-6-6--2-2-2-2--4-4-4-4-----------------------------------|
6-6-6-6--2-2-2-2--4-4-4-4--2-2-2-2--------------------------|
4-4-4-4--0-0-0-0--2-2-2-2--2-2-2-2--------------------------|
------------------------------------------------------------|Proxy-Connection: keep-alive
Cache-Control: max-age=0

--------------------0-0-0-0------------------------ x3

BASS (RYTHEM)

INTRO/1ST VERSE
--------------------------------------------|
--------------------------------------------|
--------------------------------------------|
7--7--6--6--4--4--2--2----------------------|
--------------------------------------------|
--------------------------------------------|

VERSE 2 AND 3:

----------------------------------------|
----------------------------------------|
----------------------------------------|
7-7-------------------------------------|
----7-7---------------------------------|
--------7-7-5-5-5-5---------------------|

PRECHORUS:

---------------------------------------|
---------------------------------------|
---------------------------------------|
---------------------------------------|
---------------------------------------|
5-5-5-5-4-4-4-4------------------------|

CHORUS:

------------------------------------------|
------------------------------------------|
------------------------------------------|
------------------------------------------|
4-4-4-4-0-0-0-0-2-2-2-2-------------------|
------------------------0-0-0-0-----------|

LYRICS:

1ST VERSE:

I'm on my own
I won't break a bone
I've come this far
And I have my own car

2nd verse:

I'm on my own
And I feel alone
My thoughts are countless
And I want you here.

Chorus:

Because I am alone
I have no one
I need to find my love
And hopes she's not above
I can't die empty
It's too much to lose

3rd verse:

The loneliness is starting
to sink in
I'm not gunna have a kin
Let alone some din.

Repeat chorus.

Thanks!
Tap to rate this tab
 
# A B C D E F G H I J K L M N O P Q R S T U V W X Y Z