Song name
# A B C D E F G H I J K L M N O P Q R S T U V W X Y Z

Misc Unsigned Bands - All I Knew - Papadosio tab

All I Knew by Papadosio

I learned this by ear yesterday and it might need a little bit of tweaking

This is the first tab I have seen of this song so I hope it helps

I sort of know the solos, but not well enough to tab. Feel free to improvise on those.



I wasn't born with a violent heart...
-------0-------0----------0--0------------------0-------0----------0--5-3-0----------|
-----1-----1-3---1------1-----3-1-0-----------1-----1-3--1------1-----------3-1-1----|
---2-----2------------2-------------2-0-----2-----2-----------2----------------------|
-3------------------3---------------------3-----------------3------------------------|
-------------------------------------------------------------------------------------|
-------------------------------------------------------------------------------------|

--------3-0-----0h1p0---------------3-0------------0---|
-------1-----3-1------3p1h3--------1---3p1p0-0h1h3-----|
-2-0-2------------------------2-0-2--------------------|
-------------------------------------------------------|
-------------------------------------------------------|
-------------------------------------------------------|

--------3-0----0h1p1----------------3-0------------|
-------1----3-1------3p1h3--------1----------------|
-2-0-2-----------------------2-0-2-----------------|
---------------------------------------------------|
---------------------------------------------------|
---------------------------------------------------|

I wasn't born with a jealous heart...
-------0-------0----------0--0------------------0-------0----------0--5-3-0----------|
-----1-----1-3---1------1-----3-1-0-----------1-----1-3--1------1-----------3-1-1----|
---2-----2------------2-------------2-0-----2-----2-----------2----------------------|
-3------------------3---------------------3-----------------3------------------------|
-------------------------------------------------------------------------------------|
-------------------------------------------------------------------------------------|

--------3-0-----0h1p0---------------3-0------------0---|
-------1-----3-1------3p1h3--------1---3p1p0-0h1h3-----|
-2-0-2------------------------2-0-2--------------------|
-------------------------------------------------------|
-------------------------------------------------------|
-------------------------------------------------------|

--------3-0----0h1p1----------------3-0-------0-------0-------|
-------1----3-1------3p1h3--------1------3p1h3--3p1h3---------|
-2-0-2-----------------------2-0-2----------------------------|
--------------------------------------------------------------|
--------------------------------------------------------------|
--------------------------------------------------------------|

(Let these chords ring for 4 beats before playing the next one)
Fmaj7    Fmaj7    G6    Fmaj7
Fmaj7    Fmaj7    G6    Fmaj7

I wasn't born with an ego...
-------0-------0----------0--0------------------0-------0----------0--5-3-0----------|
-----1-----1-3---1------1-----3-1-0-----------1-----1-3--1------1-----------3-1-1----|
---2-----2------------2-------------2-0-----2-----2-----------2----------------------|
-3------------------3---------------------3-----------------3------------------------|
-------------------------------------------------------------------------------------|
-------------------------------------------------------------------------------------|

--------3-0-----0h1p0---------------3-0------------0---|
-------1-----3-1------3p1h3--------1---3p1p0-0h1h3-----|
-2-0-2------------------------2-0-2--------------------|
-------------------------------------------------------|
-------------------------------------------------------|
-------------------------------------------------------|

--------3-0----0h1p1----------------3-0---------0------0------|
-------1----3-1------3p1h3--------1-------3p1h3--3p1h3--------|
-2-0-2-----------------------2-0-2----------------------------|
--------------------------------------------------------------|
--------------------------------------------------------------|
--------------------------------------------------------------|

Long Solo


Fmaj7           Fmaj7             G6      Fmaj7
We grow up they teach us the evil we've learned
Fmaj7   Fmaj7      G6       Fmaj7
People aren't evil I'll take my turn
Fmaj7            Fmaj7          G6            Fmaj7
and someday the old way we'll laugh about
Fmaj7       Fmaj7           G6               Fmaj7
Right now we somehow must phase it out


--------3-0-----0h1p0-----------------3-0------------0--|
-------1-----3-1------3p1h3---------1----3p1p0-0h1h3----|
-2-0-2-------------------------2-0-2--------------------|
--------------------------------------------------------|
--------------------------------------------------------|
--------------------------------------------------------|

--------3-0----0h1p1----------------3-0-----------------------|
-------1----3-1------3p1h3--------1---------------------------|
-2-0-2-----------------------2-0-2----------------------------|
--------------------------------------------------------------|
--------------------------------------------------------------|
--------------------------------------------------------------|

Ending Solo
Tap to rate this tab
# A B C D E F G H I J K L M N O P Q R S T U V W X Y Z