Song name
# A B C D E F G H I J K L M N O P Q R S T U V W X Y Z

Misc Unsigned Bands - Shuvamz - Sayonara Baby chords

Highlighted       Show chord diagrams
Sayonara Baby
-------------


Intro
-----

Guitar 1 (plucking)

  C                G                 Am                 F
E|-------3--1--0--|--------3--1--0--|--------------0--|--------1--0-----|
B|--1-------------|--3--------------|--1-----1--3-----|--1-----------1--|
G|-----0----------|-----0-----------|-----2-----------|-----1-----------|
D|----------------|-----------------|-----------------|-----------------|
A|--3-------------|-----------------|--0--------------|-----------------|
E|----------------|--3--------------|-----------------|--1--------------|

  C                G                 Am                F
E|-------3--1--0--|--------3--1--0--|--------------0--|-----------------|
B|--1-------------|--3--------------|--1-----1--3-----|--1--------------|
G|-----0----------|-----0-----------|-----2-----------|-----------------|
D|----------------|-----------------|-----------------|-----------------|
A|--3-------------|-----------------|--0--------------|-----------------|
E|----------------|--3--------------|-----------------|--1--------------|

--Strum from here--

C - G - Am - G
C - G - Am - G


Chorus
------

C          G            Am                      G
Sayonara baby, cause if thats the other word to say goodbye.

            C-G           Am                        G
Then I'd go crazy, and if tommorow never came would you still be with me?

F     G                   Am       G
But someday we have to go eventually.

         Dm                                       G
And If I had no other words to say goodbye I'd say...


Sayonara baby....

C - G - Am - G
C - G - Am - G


Verse
-----

C        G
You and I,

             Am        G
are like the parallel lines,

         C          G
cause we walk together,

          Am            G
but never meet each other.


C        G
You and I,

             Am           G
are like the stars in the sky.

      F
Cause we may seem close,

          G
but we're apart a thousand miles.


Pre-Chorus
----------

   Dm
So good riddance,

     G
take care of your self.

            F               G
cause there won't be anyone else to say..


Chorus
------

C          G            Am                      G
Sayonara baby, cause if thats the other word to say goodbye.

            C-G           Am                        G
Then I'd go crazy, and if tommorow never came would you still be with me?

F     G                   Am       G
But someday we have to go eventually.

         Dm                                       G
And If I had no other words to say goodbye I'd say...


Sayonara baby....

C - G - Am - G
C - G - Am - G


Verse
-----

C         G
If goodbye,

    Am            G
was nothing at all.

      C             G
There wouldn't be a thing that could,

Am      G
make me fall.


C         G
If goodbye,

     Am
well wasn't a word.

      F             G
There wouldn't be a thing that could,

Am          G
hurt me the most


Pre-Chorus
----------

   Dm
So good riddance,

     G
take care of your self.

            F               G
cause there won't be anyone else to say..


Chorus
------

C          G            Am                      G
Sayonara baby, cause if thats the other word to say goodbye.

            C-G           Am                        G
Then I'd go crazy, and if tommorow never came would you still be with me?

F     G                   Am       G
But someday we have to go eventually.

         Dm                                       G
And If I had no other words to say goodbye I'd say...


Sayonara baby....

C - G - Am - G
C - G - Am - G


Bridge
------

F       G            Am
So baby please don't go...

F                 G            Am
Cause when you're gone I'll be here all alone...

F        G              Am
And I'll miss you being by my side...

F                          G
Cause the only thing that'll make me smile is you....


---Start Plucking Again---

E|-------3--1--0--|--------3--1--0--|--------------0--|--------1--0-----|
B|--1-------------|--3--------------|--1-----1--3-----|--1-----------1--|
G|-----0----------|-----0-----------|-----2-----------|-----1-----------|
D|----------------|-----------------|-----------------|-----------------|
A|--3-------------|-----------------|--0--------------|-----------------|
E|----------------|--3--------------|-----------------|--1--------------|

E|-------3--1--0--|--------3--1--0--|--------------0--|--------1--0-----|
B|--1-------------|--3--------------|--1-----1--3-----|--1-----------1--|
G|-----0----------|-----0-----------|-----2-----------|-----1-----------|
D|----------------|-----------------|-----------------|-----------------|
A|--3-------------|-----------------|--0--------------|-----------------|
E|----------------|--3--------------|-----------------|--1--------------|

E|-------3--1--0--|--------3--1--0--|--------------0--|--------1--0-----|
B|--1-------------|--3--------------|--1-----1--3-----|--1-----------1--|
G|-----0----------|-----0-----------|-----2-----------|-----1-----------|
D|----------------|-----------------|-----------------|-----------------|
A|--3-------------|-----------------|--0--------------|-----------------|
E|----------------|--3--------------|-----------------|--1--------------|

E|-------3--1--0--|--------3--1--0--|--------------0--|--1--------------|
B|--1-------------|--3--------------|--1-----1--3-----|-----1-----------|
G|-----0----------|-----0-----------|-----2-----------|--------2--------|
D|----------------|-----------------|-----------------|-----------3-----|
A|--3-------------|-----------------|--0--------------|--------------3--|
E|----------------|--3--------------|-----------------|--1--------------|


C          G            Am                      G
Sayonara baby, cause if thats the other word to say goodbye.

            C-G           Am                        G
Then I'd go crazy, and if tommorow never came would you still be with me?


Chorus
------

C          G            Am                      G
Sayonara baby, cause if thats the other word to say goodbye.

            C-G           Am                        G
Then I'd go crazy, and if tommorow never came would you still be with me?

F     G                   Am       G
But someday we have to go eventually.

         Dm                                       G
And If I had no other words to say goodbye I'd say...


Sayonara baby....

C - G - Am - G
C - G - Am - G


F      G            Am       F       F      
   G             Am
And if goodbye well wasn't a word... would you still be with me.......



Copyrighted
Tap to rate this tab
 
# A B C D E F G H I J K L M N O P Q R S T U V W X Y Z