Song name
# A B C D E F G H I J K L M N O P Q R S T U V W X Y Z

Misc Unsigned Bands - Crazy Frog - Popcorn tab

Popcorn by Crazy Frog
Guitar Tab
Regular Tuning
For any techno/dance transposing, send me a request.
samsung180@hotmail.com
Enjoy!

e|---------------------------|
b|12---10---12---7----7---0--|
g|------------------7--------| x2
d|---------------------------|
a|---------------------------|
E|---------------------------|


e|-------------------------------------------------------------------------|
b|12---14---15--14-15--15---12--14--12-14--14----10--12--10-12--12----12---|
g|------------------------------------------------------------------12-----|
d|-------------------------------------------------------------------------|
a|-------------------------------------------------------------------------|
E|-------------------------------------------------------------------------|

e|---------------------------|
b|12---10---12---7----7---0--|
g|------------------7--------| x2
d|---------------------------|
a|---------------------------|
E|---------------------------|

e|------------------------------------------------------------------9-10---|
b|12---14---15--14-15--15---12--14--12-14--14----10--12--10-12--12---------|
g|-------------------------------------------------------------------------|
d|-------------------------------------------------------------------------|
a|-------------------------------------------------------------------------|
E|-------------------------------------------------------------------------|

e|14---12---14---10-----10------|
b|-------------------10-----7---|
g|------------------------------| x2
d|------------------------------|
a|------------------------------|
E|------------------------------|

e|14--16--17--16-17--17--14--16--14-16--16--12--14--12-14--14-----14----|
b|-------------------------------------------------------------15-------|
g|----------------------------------------------------------------------|
d|----------------------------------------------------------------------|
a|----------------------------------------------------------------------|
E|----------------------------------------------------------------------|

e|14---12---14---10-----10------|
b|-------------------10-----7---|
g|------------------------------| x2
d|------------------------------|
a|------------------------------|
E|------------------------------|

e|14--16--17--16-17--17--14--16--14-16--16--12--14--12---------12-14----|
b|-----------------------------------------------------14--14-----------|
g|----------------------------------------------------------------------|
d|----------------------------------------------------------------------|
a|----------------------------------------------------------------------|
E|----------------------------------------------------------------------|
Tap to rate this tab
 
# A B C D E F G H I J K L M N O P Q R S T U V W X Y Z