Song name
# A B C D E F G H I J K L M N O P Q R S T U V W X Y Z

Misc Unsigned Bands - Tabmat - A Question Of Mind tab

Song= A question of mind
Artist=  TabMat
Tabbed by= TabMat
E-mail= TOD46@hotmail.com

This song is in standered tuning.

------------------------------------------------------------
------------------------------------------------------------
-0---5----0--4----0---5---0--4--7---0---5---0--4--0--5---4--
-0---5----0--4----0---5---0--4--7---0---5---0--4--0--5---4--
-0---3----0--2----0---3---0--2--5---0---3---0--2--0--3---2--
------------------------------------------------------------

------------------------------------------------------------
------------------------------------------------------------
-0---7---0--7//9--0--7--0--5-0--4---------------------------
-0---7---0--7//9--0--7--0--5-0--4---------------------------
-0---5---0--5//7--0--5--0--3-0--2---------------------------
------------------------------------------------------------

Repeat this 3 times and that's the song.

Enjoy!!!!!
P.S   this took me 10 minutes to make-up this song e-mail me and tell me what ya
think.
Tap to rate this tab
# A B C D E F G H I J K L M N O P Q R S T U V W X Y Z