Song name
# A B C D E F G H I J K L M N O P Q R S T U V W X Y Z

Misc Unsigned Bands - Hey Hey My My - A True Story chords

Highlighted       Show chord diagrams
-------------------------------------------------------------------------------
			     A TRUE STORY - Hey Hey My My
-------------------------------------------------------------------------------


Intro: (natural harmonics)
e|---------------7+-----------------------------|
B|-12+---------------7+-----------12+-------7+--|
G|---------12+----------------12+-------7+------|
D|-----12+----------------12+-------------------|
A|----------------------------------------------|
E|----------------------------------------------| x2


G D      C       G  D     
  I was 11 in 1987,
   C
1987
G   D                 C
  I had a pretty good nature,
           G     D                  C 
Based on religion and some good old literature

Em                       A
  As my life went on and on
C                        D
  I was no longer a good son
Em                            A 
  Now things they don't go so wrong
C                            D
  My mother and I don't get along
     C
Get along
     G
Get along

G

G      D      C                G       D
  When I was 11, I believed in heaven,
              C
I believed in heaven
G         D           C
  I would pray for hours,
               G       D                     C
Mighty God for teacher, there was no need to lecture... me

G         D             C
  He told me I was a failure
                 G          D
Cause I spent to much time,
                       C
Playing games on my computer

G      D      C           G        D     
  When I was 11 I first understood
                  C
I might not go to heaven, no.


Em                       A
  As my life went on and on
C                        D
  I was no longer a good son
Em                            A 
  Now things they don't go so wrong
C                            D
  My father and I don't get along
     C
Get along
     G
Get along

    G      D      C            G         D        C
e|---------------------------------3-0--------------------|
B|--12--8--10--7--5------------3p0-----3------------------|
G|---------------------------------------2--2p0-3-0-------|
D|--------------------------------------------------------|
A|--------------------------------------------------------|
E|--------------------------------------------------------|

    G      D      C            G         D        C
e|---------------------------------3-0--------------------|
B|--12--8--10--7--5---8--7--5--3p0-----3------------------|
G|---------------------------------------2--2p0-3-0-------|
D|--------------------------------------------------------|
A|--------------------------------------------------------|
E|--------------------------------------------------------|


Em                       A
  As my life went on and on
C                        D
  I was no longer a good son
Em                            A 
  Now things they don't go so wrong
C                            D
  My mother and I don't get along
     C
Get along
     G
Get along
D      C
  Get along
     G
Get along
D      C
  Get along
     G
Get along
D      C
  Get along
     Em
Get along



************************************

| /   slide up
| \   slide down
| h   hammer-on
| p   pull-off
| ~   vibrato
| +   harmonic
| x   Mute note
| b   Bend
| pb  Pre-bend
| br  Bend release
| pbr Pre-bend release
| brb Bend release bend

************************************
Tap to rate this tab
# A B C D E F G H I J K L M N O P Q R S T U V W X Y Z