Song name
# A B C D E F G H I J K L M N O P Q R S T U V W X Y Z

Misc Unsigned Bands - Low Altitude Sickness - Snowblind tab

-------------------------------------------------------------------------------
			     SNOWBLIND - Low Altitude Sickness
-------------------------------------------------------------------------------
Guitar Written & Tabbed by: Henry
Lyrics Written by: Henry
Email: smallandmighty@live.co.uk

played clean

Tuning: Standard (EADGBe)


INTRO: (these are 10's and 12's, not 1's, 0's, and 2's and all)
e|--------------------------------|--------------------------------|
B|--------------------------------|--------------------------------|
G|--------------------------------|--------------------------------|
D|----12----12---9----12----12---9|----12----12---9----12----12--10|
A|1010--1010--10--1010--1010--10--|-9-9---9-9---9--1212--1212--12--|
E|--------------------------------|--------------------------------|


e|--------------------------------|--------------------------------|
B|--------------------------------|--------------------------------|
G|--------------------------------|--------------------------------|
D|----12----12---9----12----12---9|----12----12---9----12----12--10|
A|1010--1010--10--1010--1010--10--|-9-9---9-9---9--1212--1212--12--|
E|--------------------------------|--------------------------------|

VERSE 1:
e|--------------------------------|--------------------------------|
B|--------------------------------|--------------------------------|
G|--------------------------------|--------------------------------|
D|-7-7-7-7-7-7-7-7-4-----5-----4--|-7---------------4-----5-----4--|
A|--------------------------------|-----7-7-7-7-7-7----------------|
E|--------------------------------|--------------------------------|


e|--------------------------------|--------------------------------|
B|--------------------------------|--------------------------------|
G|--------------------------------|--------------------------------|
D|-----------------4-----5-----4--|-----------------4-----5-----4--|
A|-5-5-5-5-5-5-5-5----------------|-4-4-4-4-4-4-4-4----------------|
E|--------------------------------|--------------------------------|


e|--------------------------------|--------------------------------|
B|--------------------------------|--------------------------------|
G|--------------------------------|--------------------------------|
D|-7-7-7-7-7-7-7-7-4-----5-----4--|-7---------------4-----5-----4--|
A|--------------------------------|-----7-7-7-7-7-7----------------|
E|--------------------------------|--------------------------------|


e|--------------------------------|--------------------------------|
B|--------------------------------|--------------------------------|
G|--------------------------------|--------------------------------|
D|-7---------------4-----5-----4--|-----------------4-----5-----4--|
A|-----5-5-5-5-5-5----------------|-4-4-4-4-4-4-4-4----------------|
E|--------------------------------|--------------------------------|

INTERLUDE:
e|--------------------------------|--------------------------------|
B|--------------------------------|--------------------------------|
G|--------------------------------|--------------------------------|
D|----12----12---9----12----12---9|----12----12---9----12----12--10|
A|1010--1010--10--1010--1010--10--|-9-9---9-9---9--1212--1212--12--|
E|--------------------------------|--------------------------------|


e|--------------------------------|--------------------------------|
B|--------------------------------|--------------------------------|
G|--------------------------------|--------------------------------|
D|----12----12---9----12----12---9|----12----12---9----12----12--10|
A|1010--1010--10--1010--1010--10--|-9-9---9-9---9--1212--1212--12--|
E|--------------------------------|--------------------------------|

VERSE 2:
e|--------------------------------|--------------------------------|
B|--------------------------------|--------------------------------|
G|--------------------------------|--------------------------------|
D|-7-7-7-7-7-7-7-7-4-----5-----4--|-7---------------4-----5-----4--|
A|--------------------------------|-----7-7-7-7-7-7----------------|
E|--------------------------------|--------------------------------|


e|--------------------------------|--------------------------------|
B|--------------------------------|--------------------------------|
G|--------------------------------|--------------------------------|
D|-----------------4-----5-----4--|-----------------4-----5-----4--|
A|-5-5-5-5-5-5-5-5----------------|-4-4-4-4-4-4-4-4----------------|
E|--------------------------------|--------------------------------|


e|--------------------------------|--------------------------------|
B|--------------------------------|--------------------------------|
G|--------------------------------|--------------------------------|
D|-7-7-7-7-7-7-7-7-4-----5-----4--|-7---------------4-----5-----4--|
A|--------------------------------|-----7-7-7-7-7-7----------------|
E|--------------------------------|--------------------------------|


e|--------------------------------|--------------------------------|
B|--------------------------------|--------------------------------|
G|--------------------------------|--------------------------------|
D|-7---------------4-----5-----4--|-----------------4-----5-----4--|
A|-----5-5-5-5-5-5----------------|-4-4-4-4-4-4-4-4----------------|
E|--------------------------------|--------------------------------|

CHORUS 1:
e|--------------------------------|--------------------------------|
B|--------------------------------|--------------------------------|
G|10101010-9-9-9-9-7-7-7-7-7-7-7-7|-9-9-9-910101010-7-7-7-7-7-7-7-7|
D|10101010101010101010101010101010|10101010101010101010101010101010|
A|--------------------------------|--------------------------------|
E|--------------------------------|--------------------------------|


e|--------------------------------|--------------------------------|
B|--------------------------------|--------------------------------|
G|10101010-9-9-9-9-7-7-7-7-7-7-7-7|1010101012121212-9-9-9-9-9-9-9-9|
D|10101010101010101010101010101010|10101010101010101010101010101010|
A|--------------------------------|--------------------------------|
E|--------------------------------|--------------------------------|

PREVERSE:
e|--------------------------------|--------------------------------|
B|--------------------------------|--------------------------------|
G|--------------------------------|--------------------------------|
D|----12----12---9----12----12---9|----12----12---9----12----12--10|
A|1010--1010--10--1010--1010--10--|-9-9---9-9---9--1212--1212--12--|
E|--------------------------------|--------------------------------|


e|--------------------------------|--------------------------------|
B|--------------------------------|--------------------------------|
G|--------------------------------|--------------------------------|
D|----12----12---9----12----12---9|----12----12---9----12----12--10|
A|1010--1010--10--1010--1010--10--|-9-9---9-9---9--1212--1212--12--|
E|--------------------------------|--------------------------------|

VERSE 3:
e|--------------------------------|--------------------------------|
B|--------------------------------|--------------------------------|
G|--------------------------------|--------------------------------|
D|-7-7-7-7-7-7-7-7-4-----5-----4--|-7---------------4-----5-----4--|
A|--------------------------------|-----7-7-7-7-7-7----------------|
E|--------------------------------|--------------------------------|


e|--------------------------------|--------------------------------|
B|--------------------------------|--------------------------------|
G|--------------------------------|--------------------------------|
D|-----------------4-----5-----4--|-----------------4-----5-----4--|
A|-5-5-5-5-5-5-5-5----------------|-4-4-4-4-4-4-4-4----------------|
E|--------------------------------|--------------------------------|


e|--------------------------------|--------------------------------|
B|--------------------------------|--------------------------------|
G|--------------------------------|--------------------------------|
D|-7-7-7-7-7-7-7-7-4-----5-----4--|-7---------------4-----5-----4--|
A|--------------------------------|-----7-7-7-7-7-7----------------|
E|--------------------------------|--------------------------------|


e|--------------------------------|--------------------------------|
B|--------------------------------|--------------------------------|
G|--------------------------------|--------------------------------|
D|-2---------------4-----5-----4--|-----------------4-----5-----4--|
A|-----5-5-5-5-5-5----------------|-4-4-4-4-4-4-4-4----------------|
E|--------------------------------|--------------------------------|

CHORUS 2:
e|--------------------------------|--------------------------------|
B|--------------------------------|--------------------------------|
G|10101010-9-9-9-9-7-7-7-7-7-7-7-7|-9-9-9-910101010-7-7-7-7-7-7-7-7|
D|10101010101010101010101010101010|10101010101010101010101010101010|
A|--------------------------------|--------------------------------|
E|--------------------------------|--------------------------------|


e|--------------------------------|--------------------------------|
B|--------------------------------|--------------------------------|
G|10101010-9-9-9-9-7-7-7-7-7-7-7-7|1010101012121212-9-9-9-9-9-9-9-9|
D|10101010101010101010101010101010|10101010101010101010101010101010|
A|--------------------------------|--------------------------------|
E|--------------------------------|--------------------------------|

BRIDGE:
e|--------------------------------|--------------------------------|
B|--------------------------------|--------------------------------|
G|--------------------------------|--------------------------------|
D|12121212~----------------9-9-9-9|10101010~----------------9-9-9-9|
A|10101010~---------------10101010|10101010~---------------10101010|
E|--------------------------------|--------------------------------|


e|--------------------------------|--------------------------------|
B|--------------------------------|--------------------------------|
G|--------------------------------|--------------------------------|
D|12121212~----------------9-9-9-9|12121212~---------------10101010|
A|-9-9-9-9~----------------9-9-9-9|12121212~---------------12121212|
E|--------------------------------|--------------------------------|


e|--------------------------------|--------------------------------|
B|--------------------------------|--------------------------------|
G|--------------------------------|--------------------------------|
D|--------------------------------|--------------------------------|
A|-5-5-5-5-5-5-5-5-5-5-5-5-2-2-2-2|-3-3-3-3-3-3-3-3-3-3-3-3-2-2-2-2|
E|-3-3-3-3-3-3-3-3-3-3-3-3-3-3-3-3|-3-3-3-3-3-3-3-3-3-3-3-3-3-3-3-3|


e|--------------------------------|--------------------------------|
B|--------------------------------|--------------------------------|
G|--------------------------------|--------------------------------|
D|--------------------------------|--------------------------------|
A|-5-5-5-5-5-5-5-5-5-5-5-5-2-2-2-2|-5-5-5-5-5-5-5-5-3-3-3-3-3-3-3-3|
E|-2-2-2-2-2-2-2-2-2-2-2-2-2-2-2-2|-5-5-5-5-5-5-5-5-5-5-5-5-5-5-5-5|

FINAL CHORUS (DOUBLE CHORUS):
e|--------------------------------|--------------------------------|
B|--------------------------------|--------------------------------|
G|10101010-9-9-9-9-7-7-7-7-7-7-7-7|-9-9-9-910101010-7-7-7-7-7-7-7-7|
D|10101010101010101010101010101010|10101010101010101010101010101010|
A|--------------------------------|--------------------------------|
E|--------------------------------|--------------------------------|


e|--------------------------------|--------------------------------|
B|--------------------------------|--------------------------------|
G|10101010-9-9-9-9-7-7-7-7-7-7-7-7|1010101012121212-9-9-9-9-9-9-9-9|
D|10101010101010101010101010101010|10101010101010101010101010101010|
A|--------------------------------|--------------------------------|
E|--------------------------------|--------------------------------|


e|--------------------------------|--------------------------------|
B|--------------------------------|--------------------------------|
G|10101010-9-9-9-9-7-7-7-7-7-7-7-7|-9-9-9-910101010-7-7-7-7-7-7-7-7|
D|10101010101010101010101010101010|10101010101010101010101010101010|
A|--------------------------------|--------------------------------|
E|--------------------------------|--------------------------------|


e|--------------------------------|--------------------------------|
B|--------------------------------|--------------------------------|
G|10101010-9-9-9-9-7-7-7-7-7-7-7-7|1010101012121212-9-9-9-9-9-9-9-9|
D|10101010101010101010101010101010|10101010101010101010101010101010|
A|--------------------------------|--------------------------------|
E|--------------------------------|--------------------------------|

                                 END


LYRICS:

INTRO: (instrumental)
VERSE 1:
| I won't pretend | that these words | didn't burn | in my mouth |
 I won't pretend | I didn't mean | every word | that I said
INTERLUDE: (instrumental)
VERSE 2:
| I won't pretend | that my tongue, | like my hands, | was tied too |
 I won't pretend | that all of us | won't get lost | in due time |
CHORUS 1:
 We fade to grey | we fade to grey | we fade to grey | then fall away |
PREVERSE:(instrumental)
VERSE 3:
| I will ascend, | yes I'll climb | this ladder | towards you |
 As I ascend | you turn away | from all my | best efforts |
CHORUS 2:
 We fade to grey | we fade to grey | we fade to grey | then fall away |
BRIDGE: (instrumental)
FINAL CHORUS:
 We fade to grey | we fade to grey | we fade to grey | then fall away |
 We fade to grey | we fade to grey | we fade to grey | then fall away |

                                 END

Low Altitude Sickness is: Bass - Morgan
                          Guitar - Henry
                          Drums - Charles


************************************

| /   slide up
| \   slide down
| h   hammer-on
| p   pull-off
| ~   vibrato
| +   harmonic
| x   Mute note
| b   Bend
| pb  Pre-bend
| br  Bend release
| pbr Pre-bend release
| brb Bend release bend

************************************
Tap to rate this tab
 
# A B C D E F G H I J K L M N O P Q R S T U V W X Y Z