Song name
# A B C D E F G H I J K L M N O P Q R S T U V W X Y Z

Misc Unsigned Bands - Octane Ok - Take Take tab

OCTANE OK - TAKE TAKE
YOUR GOING TO HAVE TO FIGURE THE STRUMMING PATTERN OUT FOR YOURSELF....STANDARD TUNNIG - 
E, A , D , G , B , E


INTRO
| ---------------- |
| ---------------- |
| ------7--------- |
| -5----7-----7--- |
| -5----5-----7--- |
| -3----------5--- |

| --------------------- |
| --------------------- |
| ------7-------------- |
| -5----7-----7-------- |
| -5----5-----7-(x16)-- |
| -3----------5-------- |

VERSE
| ----------------------------- |
| ----------------------------- |
| -7--------------------------- |
| -7-(x8)---7---------5-------- |
| -5--------7--(x8)---5--(x16)- |
| ----------5---------3-------- | (x2)

PRE CHORUS
LET RING!!
| --------- |
| --------- |
| --------- |
| -9----7-- |
| -9----7-- |
| -7----5-- |

CHORUS
| ---------------- |
| ---------------- |
| ------7--------- |
| -5----7-----7--- |
| -5----5-----7--- |
| -3----------5--- | (x2)

| ------------------ |
| ------------------ |
| ------7----------- |
| -5----7-----7----9 |
| -5----5-----7----9 |
| -3----------5----7 |

| ---------------- |
| ---------------- |
| ------7--------- |
| -5----7-----7--- |
| -5----5-----7--- |
| -3----------5--- |

Back to verse riff,Pre chorus,Chorus
BRIDGE
| ----------------- |
| ----------------- |
| ------------7---- |
| -9----7-----7---7 |
| -9----7-----5---5 |
| -7----5---------3 |

| ----------------- |
| ----------------- |
| ------------7---9 |
| -9----7-----7---9 |
| -9----7-----5---7 |
| -7----5---------- |

Then return to the intro,and chorus to finish!
THIS IS MY FIRST TAB AND IT WAS DONE BY EAR SO IT'S PROBABLY NOT 100% CORRECT BUT IT 
SOUNDS OK :)
Tap to rate this tab
# A B C D E F G H I J K L M N O P Q R S T U V W X Y Z