Song name
# A B C D E F G H I J K L M N O P Q R S T U V W X Y Z

Misc Unsigned Bands - Corridor Digital - Freak Guitar Accident tab

So, Corridor Digital (Also known as Sam and Niko) released the tabs on Twitter and the 
YouTube video description. In case you're too blind to read it...



Freak Guitar Accident

Written By Sam Gorski


G1:
2-2---2-2-2---2-|
2-2---2-2-2---2-|
0-0---0-0-0---0-|

G2:
9-9---9-9-9---9-9-9---9-9-9----9-|
7-7---7-7-7---7-6-6---6-6-6----6-|
---------------------------------|


Niko's Chord Intro:
12-12---12-12-12---12-11-11---11-11-11---11-11-11---11-11-11---11-10-10---10-10-10---10-|
9--9----9--9--9----9--9--9----9--9--9----9--9--9----9--9--9----9--9--9----9--9--9----9--|
10-10---10-10-10---10-9--9----9--9--9----9--9--9----9--9--9----9--8--8----8--8--8----8--|
0--0----0--0--0----0--10-10---10-10-10---10-9--9----9--9--9----9--9--9----9--9--9----9--|

12-12---12-12-12---12-11-11---11-11-11---11----------------------4------|
9--9----9--9--9----9--9--9----9--9--9----9--4>>>>>>>>>11>>>>>>>>>4------|
10-10---10-10-10---10-9--9----9--9--9----9------------->>>>>>>>>-2------|
0--0----0--0--0----0--10-10---10-10-10---10-2>>>>>>>>>9>>>>>>>>>>-------|


Main Melody:

---------------------------------------------------------------------------|
---------------------------------------------------------------------------|
------11-12-9-11--9--------------------------------------------------------|
----9-----------13--9-138-9---9--------------9-10-13-9-10--9---------------|
--10------------------------12--10-12-9-10-12---------------12-10-12-10-12-|
0--------------------------------------------------------------------------|

---------------------------------------------------------------------------|
---------------------------------------------------------------------------|
------11-12-9-11--9--------------------------------------------------------|
----9-----------13--9-138-9---9--------------9-10-13-9-10--9---------------|
--9-------------------------12--10-12-9-10-12---------------12-10-12-10-12-|
10-------------------------------------------------------------------------|

------------------------------------------------------------------|
--------12--------------------------------------------------------|
------11--11-14-9-11--9-----119---119---9-7---7-6---6-------------|
----9---------------12--9-12----9-----9-----9-----9---9-7-9-7-----|
--9-----------------------------------------------------------9-7-|
10----------------------------------------------------------------|

---------------------------------------------------------------------------|
--------9-12-10-9---10-9------9--------------------------------------------|
------10----------11-----11-10--11-10-11-10--10----------------------------|
----9--------------------------------------11--11-9-11-9---9---------------|
--8------------------------------------------------------11--11-9-11-9-8---|
9------------------------------------------------------------------------9-|
Tap to rate this tab
 
# A B C D E F G H I J K L M N O P Q R S T U V W X Y Z