Song name
# A B C D E F G H I J K L M N O P Q R S T U V W X Y Z

Misc Unsigned Bands - Hard To Kill Soundtrack - Main Theme tab

Standard tuning (EBGDAE)

Half distorted

Starts at 0:39

E|----------------------------------------------------------------|
B|----------------------------------------------------------------|
G|----------------------------------------------------------------|
D|-2--/4--5--4--------------/9~-----------------------------------|
A|-----------------5---/7-----------------------------------------|
E|----------------------------------------------------------------|


E|-----------------------------------------------------------------|
B|-----------------------------------------------------------------|
G|-----------------------------------------------------------------|
D|-2--/4--5--4-----------------------------------------------------|
A|-----------------5---\2~-----------------------------------------|
E|-----------------------------------------------------------------|
									

E|-----------------------------------------------------------------|
B|-----------------------------------------------------------------|
G|-----------------------------------------------------------------|
D|-2--/4--5--4-------------/9~------/4-2-2----9b10r~--7h9p7h9~-----|
A|----------------5---/7-------------------------------------------|
E|-----------------------------------------------------------------|

1:37	

E|------------------------------------------------------------|
B|-------------------------------/12----9~\-------------------|
G|-6~---/8~--/9~----/11~--------------------------------------|
D|------------------------------------------------------------|
A|------------------------------------------------------------|
E|------------------------------------------------------------|

3:23
E|------------------------------------------------------------|
B|------------------------------------------------------------|
G|------------------------------------------------------------|
D|-5----------------------------------------------------------|
A|-5----------------------------------------------------------|
E|-3----------------------------------------------------------|

3:42
E|------------------------------------------------------------|
B|------------------------------------------------------------|
G|------------------------------------------------------------|
D|-2----------------------------------------------------------|
A|-2----------------------------------------------------------|
E|-0----------------------------------------------------------|

3:51

E|------------------------------------------------------------|  x8
B|------------------------------------------------------------|
G|-9--9-------------------------------------------------------|
D|-9--9-------------------------------------------------------|
A|-7--7-------------------------------------------------------|
E|------------------------------------------------------------|

4:17
E|------------------------------------------------------------|  
B|------------------------------------------------------------|
G|-9--9-----9-x-9---------------------------------------------|
D|-9--9-----9-x-9---------------------------------------------|
A|-7--7-----7-x-7---------------------------------------------|
E|------------------------------------------------------------|

and in the end:
E|-------------------------------------------------------------|
B|-------------------------------------------------------------|
G|-(9)---------------------------------------------------------|
D|-(9)---------------------------------------------------------|
A|-(7)---------------------------------------------------------|
E|/(0)---------------------------------------------------------|
         
Keep till fade

This is my first tab ever so please forgive me all mistakes.
Hope you will like it
Tap to rate this tab
# A B C D E F G H I J K L M N O P Q R S T U V W X Y Z