Song name
# A B C D E F G H I J K L M N O P Q R S T U V W X Y Z

Misc Unsigned Bands - Stefan Versace - Her Lullaby tab

Written by Stefan and a friend for his beautiful girlfriend Sam.


Capo on 3rd fret

strum then pluck

e---0-----------0-----------0---0-------3--3----3-------|
B---1---1-------1---1-------1-------1---1----1----1-----|
G---2-------2---2-------2---0-----------0---------------|
D---2-----------3-----------2-----------0---------------|
A---0-----------0-----------3-----------2---------------|
E---0-----------0-----------0-----------3---------------|


e---0-----------0-----------0---0-------3--3---3--------|
B---1---1-------1---1-------1-------1---1----1---1------|
G---2-------2---2-------2---0-----------0---------------|
D---2-----------3-----------2-----------0---------------|
A---0-----------0-----------3-----------2---------------|
E---0-----------0-----------0-----------3---------------|

Strum
e---0-----------0-----------0-----------3---------------|
B---1-----------1-----------1-----------1---------------|
G---2-----------2-----------0-----------0---------------|
D---2-----------3-----------2-----------0---------------|
A---0-----------0-----------3-----------2---------------|
E---0-----------0-----------0-----------3---------------|

e---0-----------0-----------0-----------3---------------|
B---1-----------1-----------1-----------1---------------|
G---2-----------2-----------0-----------0---------------|
D---2-----------3-----------2-----------0---------------|
A---0-----------0-----------3-----------2---------------|
E---0-----------0-----------0-----------3---------------|

strum then pluck again
e---0-----------0-----------0-0---0-----3--3---3--------|
B---1-1---1-----1-1---1-----1---1---1---1----1---1------|
G---2---2---2---2---2---2---0---------0-0---------------|
D---2---------2-3---------3-2-----------0---------------|
A---0-----------0-----------3-----------2---------------|
E---0-----------0-----------0-----------3---------------|

e---0-----------0-----------0-0---0-----3--3---3--------|
B---1-1---1-----1-1---1-----1---1---1---1----1---1------|
G---2---2---2---2---2---2---0---------0-0---------------|
D---2---------2-3---------3-2-----------0---------------|
A---0-----------0-----------3-----------2---------------|
E---0-----------0-----------0-----------3---------------|

Strum
e---0-----------0-----------0-----------3---------------|
B---1-----------1-----------1-----------1---------------|
G---2-----------2-----------0-----------0---------------|
D---2-----------3-----------2-----------0---------------|
A---0-----------0-----------3-----------2---------------|
E---0-----------0-----------0-----------3---------------|

e---0-----------0-----------0-----------3---------------|
B---1-----------1-----------1-----------1---------------|
G---2-----------2-----------0-----------0---------------|
D---2-----------3-----------2-----------0---------------|
A---0-----------0-----------3-----------2---------------|
E---0-----------0-----------0-----------3---------------|

e---0-----x-----0-----x-----0-----x-----3---------------|
B---1-----x-----1-----x-----1-----x-----1---------------|
G---2-----x-----2-----x-----0-----x-----0---------------|
D---2-----x-----3-----x-----2-----x-----0---------------|
A---0-----x-----0-----x-----3-----x-----2---------------|
E---0-----x-----0-----x-----0-----x-----3---------------|

e---0-----x-----0-----x-----0-----x-----3---------------|
B---1-----x-----1-----x-----1-----x-----1---------------|
G---2-----x-----2-----x-----0-----x-----0---------------|
D---2-----x-----3-----x-----2-----x-----0---------------|
A---0-----x-----0-----x-----3-----x-----2---------------|
E---0-----x-----0-----x-----0-----x-----3---------------|

e---3-----------3-----------3-----------3---------------|
B---1-----------1-----------1-----------1---------------|
G---0-----------0-----------0-----------0---------------|
D---0-----------0-----------0-----------0---------------|
A---2-----------2-----------2-----------2---------------|
E---3-----------3-----------3-----------3---------------|

e---0-----------0-----------0-----------3---------------|
B---1-----------1-----------1-----------1---------------|
G---2-----------2-----------0-----------0---------------|
D---2-----------3-----------2-----------0---------------|
A---0-----------0-----------3-----------2---------------|
E---0-----------0-----------0-----------3---------------|

e---0-----------0-----------0-----------3---------------|
B---1-----------1-----------1-----------1---------------|
G---2-----------2-----------0-----------0---------------|
D---2-----------3-----------2-----------0---------------|
A---0-----------0-----------3-----------2---------------|
E---0-----------0-----------0-----------3---------------|

e---0-----------0-----------0-----------3---------------|
B---1-----------1-----------1-----------1---------------|
G---2-----------2-----------0-----------0---------------|
D---2-----------3-----------2-----------0---------------|
A---0-----------0-----------3-----------2---------------|
E---0-----------0-----------0-----------3---------------|

e---0-----------0-----------0-----------3---------------|
B---1-----------1-----------1-----------1---------------|
G---2-----------2-----------0-----------0---------------|
D---2-----------3-----------2-----------0---------------|
A---0-----------0-----------3-----------2---------------|
E---0-----------0-----------0-----------3---------------|

e---3-----------3-----------3-----------3---------------|
B---1-----------1-----------1-----------1---------------|
G---0-----------0-----------0-----------0---------------|
D---0-----------0-----------0-----------0---------------|
A---2-----------2-----------2-----------2---------------|
E---3-----------3-----------3-----------3---------------|

http://www.youtube.com/watch?v=q1T6zL3zWp8
Tap to rate this tab
# A B C D E F G H I J K L M N O P Q R S T U V W X Y Z