Song name
# A B C D E F G H I J K L M N O P Q R S T U V W X Y Z

Misc Unsigned Bands - District 24 - Unknown tab

DISTRICT 24 - UNKNOWN


Alright, it's been a little bit since last song but here it is:

INTRO: Acoustic 1

-------------------------------------------------------------|
-------------------------------------------------------------|
-------------------------------------------------------------|
---0---0---0---0---------------------------------------------|
0-----0------------------------------------------------------|
---------3---2-----------------------------------------------|  (X2)

P.M.
--------------------------------------------------------|
--------------------------------------------------------|
--------------------------------------------------------|
--------------------------------------------------------|
--------------------------------------------------------|
3-3333333--2-22222222-7-7777777-------------------------| X2

VERSE
--------------------------------------------------------|
--------------------------------------------------------|
--------------------------------------------------------|
5-5-5-5--4-4-4-4--9-9-9-9--7-7-7-7----------------------|
5-5-5-5--4-4-4-4--9-9-9-9--7-7-7-7----------------------|
3-3-3-3--2-2-2-2--7-7-7-7--7-7-7-7----------------------|X2

CHORUS:


--------------------------------------------------------|
--------------------------------------------------------|
4-4-4-4-3-3-3-3-8-8-8-8-8-8-8-8-------------------------|
5-5-5-5-4-4-4-4-9-9-9-9-7-7-7-7-------------------------|
5-5-5-5-4-4-4-4-9-9-9-9-7-7-7-7-------------------------|
3-3-3-3-2-2-2-2-7-7-7-7-7-7-7-7-------------------------|

AFTER CHORUS:
--------------------------------------------------------|
--------------------------------------------------------|
--------------------------------------------------------|
--------------------------------------------------------|
--------------------------------------------------------|
000000-33-22-777777777----------------------------------|

That's it.

Thanks.

10-22-11 8:29 pm
Tap to rate this tab
# A B C D E F G H I J K L M N O P Q R S T U V W X Y Z