Song name
# A B C D E F G H I J K L M N O P Q R S T U V W X Y Z

Misc Unsigned Bands - Pinn Panelle - Nice Sprites And Scary Monsters tab

Nice Sprites and Scary Monsters

There's nothing wrong with the existing tabs on here but for
people who are less aware of scale shapes and stuff this is
much easier to work around than some of the others i've viewed.
This is the same version that Derek Song out of Pinn Pannelle uses.

Rhythmically the notes are all the same lengths except those shown
with Vibratos as they have their lengths extended doubled.

E|---------------------------------------------------------|
B|---------------------------------------------------------|
G|------------------15~---17b18r17p15----------------------|
D|-------17-15-17-----17--------------17~------------------|
A|----------------------------------------15-17-15---------|
E|----15---------------------------------------------------|

E|------------------------------15-------------------------|
B|---------------------------------15-------18-------------|
G|------------------------------------15-------17----------|
D|15--------------15--------------------17--------17-15----|
A|---18-17-15----------------------------------------------|
E|--------------18----18-15-18-----------------------------|
Tap to rate this tab
# A B C D E F G H I J K L M N O P Q R S T U V W X Y Z