Song name
# A B C D E F G H I J K L M N O P Q R S T U V W X Y Z

Misc Unsigned Bands - The Hermione Crookshanks Experience - So Long And Goodbye tab

-------------------------------------------------------------------------
        So Long and Goodbye - The Hermione Crookshanks Experience
-------------------------------------------------------------------------

Tuning:Standard

It's actually really really simple. :)

Intro:
e|--------------------------------------------------|
B|----0-0-0-0----0-0-0-0----0-0-0-0----0-0-0-0------|
G|--------------------------------------------------|
D|--------------------------------------------------| x2
A|---7-7-7-7----6-6-6-6----5-5-5-5----4-4-4-4-------|
E|--------------------------------------------------|

Verse 1:
"So Long, and Goodbye"
e|--------------------------------------------------|
B|----0-0-0-0----0-0-0-0----0-0-0-0----0-0-0-0------|
G|--------------------------------------------------|
D|--------------------------------------------------| 
A|---7-7-7-7----6-6-6-6----5-5-5-5----4-4-4-4-------|
E|--------------------------------------------------|
"I Love You, Please don't..."
e|--------------------------------------------------|
B|----0-0-0-0----0-0-0-0----0-0-0-0----0-0-0-0------|
G|--------------------------------------------------|
D|--------------------------------------------------| 
A|---7-7-7-7----6-6-6-6----5-5-5-5----4-4-4-4-------|
E|--------------------------------------------------|
"..cry"
e|--------------------------------------------------|
B|----0-0-0-0----0-0-0-0----0-0-0-0----0-0-0-0------|
G|--------------------------------------------------|
D|--------------------------------------------------| 
A|---7-7-7-7----6-6-6-6----5-5-5-5----4-4-4-4-------|
E|--------------------------------------------------|

Verse 2:
"I'll make this easier, at least for you"
e|-----0----0-----0----0------0----0-----0----0--|
B|----0-0--0-0---0-0--0-0----0-0--0-0---0-0--0-0-|
G|-----------------------------------------------|
D|-----------------------------------------------|
A|---7----7-----6----6------5----5-----4----4----|
E|-----------------------------------------------|

"And In the morning you won't remember who I"
e|-----0----0-----0----0------0----0-----0----0--|
B|----0-0--0-0---0-0--0-0----0-0--0-0---0-0--0-0-|
G|-----------------------------------------------|
D|-----------------------------------------------|
A|---7----7-----6----6------5----5-----4----4----|
E|-----------------------------------------------|
"..am......who I am"
e|-----0----0-----0----0------0----0-----0----0--|
B|----0-0--0-0---0-0--0-0----0-0--0-0---0-0--0-0-|
G|-----------------------------------------------|
D|-----------------------------------------------|
A|---7----7-----6----6------5----5-----4----4----|
E|-----------------------------------------------|

Verse 3:
"For you to lose a daughter, I couldn't bear to watch"
e|-----0----0-----0----0------0----0-----0----0--|
B|----0-0--0-0---0-0--0-0----0-0--0-0---0-0--0-0-|
G|-----------------------------------------------|
D|-----------------------------------------------|
A|---7----7-----6----6------5----5-----4----4----|
E|-----------------------------------------------|

"So it'd better if you just forgot..."
e|-----0----7-----0---7-------0----7-----0----7--|
B|----0-0--0-----0-0--0------0-0--0-----0-0--0---|
G|-----------------------------------------------|
D|-----------------------------------------------|
A|---7----7-----6----6------5----5-----4----4----|
E|-----------------------------------------------|
"...me"
e|-----0----7-----0---7-------0----7-----0----5-------0----5-|
B|----0-0--0-----0-0--0------0-0--0-----0-0--0-------0-0--0--|
G|-----------------------------------------------------------|
D|-----------------------------------------------------------|
A|---7----7-----6----6------5----5-----4----4-------4----4---|
E|-----------------------------------------------------------|
Interlude/(bridge):
e|-----------------------------------------------|
B|---0-7-9----0-7-9----0-5-7----0-4-5-4----------|
G|-----------------------------------------------|
D|-----------------------------------------------|
A|---7-7-7----6-6-6----5-5-5----4-4-4-4----------|
E|-----------------------------------------------|

e|----------------------------------------------------|
B|---0-9-7----0-7-9----0-5-7----0-4-5--------0-4-5----|
G|----------------------------------------------------|
D|----------------------------------------------------|
A|---7-7-7----6-6-6----5-5-5----4-4-4--------4-4-4----|
E|----------------------------------------------------|

e|-----0----0-----0----0------0----0-----0----0--|
B|----0-0--0-0---0-0--0-0----0-0--0-0---0-0--0-0-|
G|-----------------------------------------------|
D|-----------------------------------------------| 
A|---7----7-----6----6------5----5-----4----4----|
E|-----------------------------------------------|

"By the Morning, you won't remember"
e|-----0----0-----0----0------0----0-----0----0--|
B|----0-0--0-0---0-0--0-0----0-0--0-0---0-0--0-0-|
G|-----------------------------------------------|
D|-----------------------------------------------| 
A|---7----7-----6----6------5----5-----4----4----|
E|-----------------------------------------------|
"me......By the morning"
e|-----0----0-----0----0------0----0-----0----0--|
B|----0-0--0-0---0-0--0-0----0-0--0-0---0-0--0-0-|
G|-----------------------------------------------|
D|-----------------------------------------------| 
A|---7----7-----6----6------5----5-----4----4----|
E|-----------------------------------------------|

e|-----0----0-----0----0------0----0-----0----0--|
B|----0-0--0-0---0-0--0-0----0-0--0-0---0-0--0-0-|
G|-----------------------------------------------|
D|-----------------------------------------------| 
A|---7----7-----6----6------5----5-----4----4----|
E|-----------------------------------------------|

///pause///

Verse 4:
e|--------------------------------------------------|
B|----0-0-0-0----0-0-0-0----0-0-0-0----0-0-0-0------|
G|--------------------------------------------------|
D|--------------------------------------------------| 
A|---7-7-7-7----6-6-6-6----5-5-5-5----4-4-4-4-------|
E|--------------------------------------------------|

"So Long, and Goodbye"
e|--------------------------------------------------|
B|----0-0-0-0----0-0-0-0----0-0-0-0----0-0-0-0------|
G|--------------------------------------------------|
D|--------------------------------------------------| 
A|---7-7-7-7----6-6-6-6----5-5-5-5----4-4-4-4-------|
E|--------------------------------------------------|
"I'll always love you, and I, I won't...."
e|--------------------------------------------------|
B|----0-0-0-0----0-0-0-0----0-0-0-0----0-0-0-0------|
G|--------------------------------------------------|
D|--------------------------------------------------| 
A|---7-7-7-7----6-6-6-6----5-5-5-5----4-4-4-4-------|
E|--------------------------------------------------|
"...cry"
e|----------------------------------0---0-----------|
B|----0-0-0-0----------0-0-0-5-0---0-0--0-----------|
G|--------------------------------------------------|
D|--------------------------------------------------| 
A|---4-4-4-4---------3-3-3--------3-----7-----------|
E|--------------------------------------------------|


~-~-~-~-
So this is my first actual 'tab'
Hope I did well ^-^
Comment and tell me if I did, please!
Tap to rate this tab
 
# A B C D E F G H I J K L M N O P Q R S T U V W X Y Z