Song name
# A B C D E F G H I J K L M N O P Q R S T U V W X Y Z

Misc Unsigned Bands - A Night To Forget - The Regret tab

-------------------------------------------------------------------------------
			     The Regret - A Night To Forget
-------------------------------------------------------------------------------
Tabbed by:Lliam Morrice
Email:lliammorrice33@hotmail.com

Tuning:Drop D

Intro:x3

e|---------------------------------------------------------------------------|
B|---------------------------------------------------------------------------|
G|---------------------------------------------------------------------------|
D|----9-9-9----7-7-7----5-5-5------------------------------------------------|
A|----9-9-9----7-7-7----5-5-5------------------------------------------------|
D|----9-9-9----7-7-7----5-5-5------------------------------------------------|

Intro(2):x1

e|---------------------------------------------------------------------------|
B|---------------------------------------------------------------------------|
G|---------------------------------------------------------------------------|
D|----9-9-9----7-7-7----5----------------------------------------------------|
A|----9-9-9----7-7-7----5----------------------------------------------------|
D|----9-9-9----7-7-7----5----------------------------------------------------|

Verse:x6

e|---------------------------------------------------------------------------|
B|---------------------------------------------------------------------------|
G|---------------------------------------------------------------------------|
D|-----------12-11---------12-11---------7-9---------7-9---------------------|
A|----9--9----------9--9----------7--7--------7--7---------------------------|
D|----9--9----------9--9----------7--7--------7--7---------------------------|

Chorus:x2

e|---------------------------------------------------------------------------|
B|---------------------------------------------------------------------------|
G|------------------------------------------------12-12-11-11-7--------------|
D|----9-9-9-9-9-9----5-5-5-5-5-5----7-7-7-7-7-7------------------------------|
A|----9-9-9-9-9-9----5-5-5-5-5-5----7-7-7-7-7-7---10-10-9--9--5--------------|
D|----9-9-9-9-9-9----5-5-5-5-5-5----7-7-7-7-7-7------------------------------|

e|-----------------------------------------------------------------------------|
B|-----------------------------------------------------------------------------|
G|------------------------------------------------7--7--9--9--11---------------|
D|----9-9-9-9-9-9----5-5-5-5-5-5----7-7-7-7-7-7--------------------------------|
A|----9-9-9-9-9-9----5-5-5-5-5-5----7-7-7-7-7-7---5--5--7--7--9----------------|
D|----9-9-9-9-9-9----5-5-5-5-5-5----7-7-7-7-7-7--------------------------------|

Verse:x6

e|---------------------------------------------------------------------------|
B|---------------------------------------------------------------------------|
G|---------------------------------------------------------------------------|
D|-----------12-11---------12-11---------7-9---------7-9---------------------|
A|----9--9----------9--9----------7--7--------7--7---------------------------|
D|----9--9----------9--9----------7--7--------7--7---------------------------|

Chorus:x2

e|---------------------------------------------------------------------------|
B|---------------------------------------------------------------------------|
G|------------------------------------------------12-12-11-11-7--------------|
D|----9-9-9-9-9-9----5-5-5-5-5-5----7-7-7-7-7-7------------------------------|
A|----9-9-9-9-9-9----5-5-5-5-5-5----7-7-7-7-7-7---10-10-9--9--5--------------|
D|----9-9-9-9-9-9----5-5-5-5-5-5----7-7-7-7-7-7------------------------------|

e|-----------------------------------------------------------------------------|
B|-----------------------------------------------------------------------------|
G|------------------------------------------------7--7--9--9--11---------------|
D|----9-9-9-9-9-9----5-5-5-5-5-5----7-7-7-7-7-7--------------------------------|
A|----9-9-9-9-9-9----5-5-5-5-5-5----7-7-7-7-7-7---5--5--7--7--9----------------|
D|----9-9-9-9-9-9----5-5-5-5-5-5----7-7-7-7-7-7--------------------------------|

Bridge:x2

e|---------------------------------------------------------------------------|
B|---------------------------------------------------------------------------|
G|---------------------------------------------------------------------------|
D|----9--7--5--9--12--5------------------------------------------------------|
A|----9--7--5--9--12--5------------------------------------------------------|
D|----9--7--5--9--12--5------------------------------------------------------|

Chorus:x2

e|---------------------------------------------------------------------------|
B|---------------------------------------------------------------------------|
G|------------------------------------------------12-12-11-11-7--------------|
D|----9-9-9-9-9-9----5-5-5-5-5-5----7-7-7-7-7-7------------------------------|
A|----9-9-9-9-9-9----5-5-5-5-5-5----7-7-7-7-7-7---10-10-9--9--5--------------|
D|----9-9-9-9-9-9----5-5-5-5-5-5----7-7-7-7-7-7------------------------------|

e|-----------------------------------------------------------------------------|
B|-----------------------------------------------------------------------------|
G|------------------------------------------------7--7--9--9--11---------------|
D|----9-9-9-9-9-9----5-5-5-5-5-5----7-7-7-7-7-7--------------------------------|
A|----9-9-9-9-9-9----5-5-5-5-5-5----7-7-7-7-7-7---5--5--7--7--9----------------|
D|----9-9-9-9-9-9----5-5-5-5-5-5----7-7-7-7-7-7--------------------------------|

Outro:x1

e|---------------------------------------------------------------------------|
B|---------------------------------------------------------------------------|
G|---------------------------------------------------------------------------|
D|-----------12-11---------12-11---------7-9---------7-9---------------------|
A|----9--9----------9--9----------7--7--------7--7---------------------------|
D|----9--9----------9--9----------7--7--------7--7---------------------------|

e|---------------------------------------------------------------------------|
B|---------------------------------------------------------------------------|
G|---------------------------------------------------------------------------|
D|-----------12-11---------12-11---------7-9---------7-9---------------------|
A|----9--9----------9--9----------7--7--------7--7---------------------------|
D|----9--9----------9--9----------7--7--------7--7---------------------------|

e|---------------------------------------------------------------------------|
B|---------------------------------------------------------------------------|
G|---------------------------------------------------------------------------|
D|----9-9-9----7-7-7----5----------------------------------------------------|
A|----9-9-9----7-7-7----5----------------------------------------------------|
D|----9-9-9----7-7-7----5----------------------------------------------------|
Tap to rate this tab
# A B C D E F G H I J K L M N O P Q R S T U V W X Y Z