Song name
# A B C D E F G H I J K L M N O P Q R S T U V W X Y Z

Misc Unsigned Bands - Scary Skrillex - Monsters And Nice Sprites tab

Official skillrex website
http://www.skrillex.com/

Hello, I'm William and this is the first tab i've written. The main part I just took off
other's tabs but i just edited it to what i think the song sounds like. The bridge is
done completely by ear and took me a while. Bends and vibratos also sound great at notes 
that aren't as connected to other notes as the melody. Feedback to lonelybanana9@gmail.com

Drop D tuning

(Main Part)
E|---------------------------------------------------------------------------|
B|------------------------------15-------------------------------------------|
G|----------------------15----------17--15-----------------------------------|
D|----------17--15--17------17--------------15--15~-13--12----------15-------|
A|-----17---------------------------------------------------15--13------13---|
D|-----17--------------------------------------------------------------------|

E|----------------------------------------------|
B|---------------20--------------18--15---------|
G|-------------------19--15--------------15-----|
D|---------------------------17--------------17-|
A|--10--13--------------------------------------|
D|----------------------------------------------|


(Bridge)
E|---1-------------------------------1---------------1-----------------------|
B|-----3-3-3-1---1-3h4p3-------------------------------3-3-3-1---1-3-4-4/6---|
G|-3-----------3---------3-3-3-3-3-3---3-3h5p3-2p0-3-----------3-------------|
D|---------------------------------------------------------------------------|
A|---------------------------------------------------------------------------|
D|---------------------------------------------------------------------------|

E|-------------|
B|-------------|
G|-3-3-3-3-3-3-|
D|-------------|
A|-------------|
D|-------------|


(Chorus)
E|-------------------------------|
B|-------------------------------|
G|-------------------------------|
D|-1-----3-----5-----5\3---------|
A|-1-----3-----5-----5\3---------|
E|-1-----3-----5-----5\3---------|


(our favorite part of the song, DUBSTEP)
E|------------------------|
B|------------------------|
G|------------------------|
D|------------5-----6-----|
A|-------8*---5-----6-----|
E|-5-0--------5-----6-----|

I Wub wub wub dubstep :D

Email is above if you find any errors.
Tap to rate this tab
# A B C D E F G H I J K L M N O P Q R S T U V W X Y Z