Song name
# A B C D E F G H I J K L M N O P Q R S T U V W X Y Z

Misc Unsigned Bands - Atlantic Aftermath - Expand Your Brocabulary tab

(/) Slide Up  (\) Slide Down  (h) Hammer On  (p) Pull Off  (b) Bend (r) Release (v) Vibrato


E|----------------|
B|----------------|
G|--7-----11------|
D|--7--7--11--12--|
A|--5--7--9---12--|
d|-----7------12--|



E|---------------------------------------------------------------------------|
B|---------------------------------------------------------------------------|
G|--------------------------7--6-----------------------------777--666--------|
D|----------5p4-------7-------------------5p4-------777----------------------|
A|--5--5h7-------7p5-----5--------5--5h7-------7p5------555------------------|
d|---------------------------------------------------------------------------|



E|------------------------------------------------------------------------|
B|------------------------------------------------------------------------|
G|--------------------7/9--7--6--7-----7p6--7h9--7p6--9/11--9--11/12--11--|
D|----------5p4---------------------7-------------------------------------|
A|--5--5h7-------7p5------------------------------------------------------|
d|------------------------------------------------------------------------|
Tap to rate this tab
# A B C D E F G H I J K L M N O P Q R S T U V W X Y Z