Song name
# A B C D E F G H I J K L M N O P Q R S T U V W X Y Z

Misc Unsigned Bands - Skuh - Brothers In Arms tab

-------------------------------------------------------------------------------
			                         Brothers in Arms - Skuh
-------------------------------------------------------------------------------
Tabbed by:gbubguitar107	
Email:gbellerby10@gmail.com

This is by a Thrash Metal band out of Oregon,
named Skuh. You can check out this song on Youtube, 
OR you can check them out on Facebook! Have a 
Good one!

Tuning:EADGBE (Low to High)
 
  Intro (Lead)
e|---------------------------------------------------------------------------|
B|---------------------------------------------------------------------------|
G|---------------------------------------------------------------------------|
D|---------------------------------------------------------------------------|
A|-3p0-0-5p0-0-6p0-5p0-3p0-5p0-3p0-------------------------------------------|
E|---------------------------------------------------------------------------|

 (Rhythm)
e|---------------------------------------------------------------------------|
B|---------------------------------------------------------------------------|
G|-2~-2~-2~-2~---------------------------------------------------------------|
D|-2~-2~-2~-2~---------------------------------------------------------------|
A|-0~-0~-0~-0~---------------------------------------------------------------|
E|---------------------------------------------------------------------------|

  Harmony 
e|---------------------------------------------------------------------------|
B|---------------------------------------------------------------------------|
G|---------------------------------------------------------------------------|
D|-3p0-0-5p0-0-6p0-5p0-3p0-5p0-3p0-------------------------------------------|
A|---------------------------------------------------------------------------|
E|---------------------------------------------------------------------------|

  Riff 1 
e|---------------------------------------------------------------------------|
B|---------------------------------------------------------------------------|
G|---------------------------------------------------------------------------|
D|-----------------5\4---4\3---3\2-------------------------------------------|
A|-2-----2---2---------------------------------------------------------------|
E|-0-0-0-0-0-0-0-0-3\2-0-2\1-0-1\0-------------------------------------------|
P.M. * *   *   * *     *     *   

  Riff 2 
e|---------------------------------------------------------------------------|
B|---------------------------------------------------------------------------|
G|---------------------------------------------------------------------------|
D|-----------------2h3p2-----------2-----------------------------------------|
A|-2-----2---2-----------5-3-2-3-5-------------------------------------------|
E|-0-0-0-0-0-0-0-0-----------------------------------------------------------|
P.M. * *   *   * *       * * * * *

  (Harmony) 
e|---------------------------------------------------------------------------|
B|---------------------------------------------------------------------------|
G|----------------4h5p4-----------4------------------------------------------|
D|----------------------7-5-4-5-7--------------------------------------------|
A|-2-----2---2---------------------------------------------------------------|
E|-0-0-0-0-0-0-0-0-----------------------------------------------------------|
P.M. * *   *   * *      * * * * *

  Verse Riff (1)
e|---------------------------------------------------------------------------|
B|---------------------------------------------------------------------------|
G|---------------------------------------------------------------------------|
D|---------------------------------------------------------------------------|
A|-2-----2---2-----5\4---5\4---4/5-------------------------------------------|
E|-0-0-0-0-0-0-0-0-3\2-0-3\2-0-2/3-------------------------------------------|
P.M. * *   *   * *     *     *

  Verse Riff (2)
e|---------------------------------------------------------------------------|
B|---------------------------------------------------------------------------|
G|---------------------------------------------------------------------------|
D|---------------------------------------------------------------------------|
A|-4-----4---4-----7\6--7\6--6/7---------------------------------------------|
E|-2-2-2-2-2-2-2-2-5\4--5\4--4/5---------------------------------------------|
P.M. * *   *   * *    

  Riff 3
e|---------------------------------------------------------------------------|
B|---------------------------------------------------------------------------|
G|---------------------------------------------------------------------------|
D|-----------------5\4---------4/5-------------------------------------------|
A|-2-----2---2-----3\2---5\4---2/3-------------------------------------------|
E|-0-0-0-0-0-0-0-0-----0-3\2-0-----------------------------------------------|
P.M. * *   *   * *     *     *

  Chorus
e|---------------------------------------------------------------------------|
B|---------------------------------------------------------------------------|
G|-2-----5---7-----2---------------2-----5---7-------------------------------|
D|-3-----5---7-----2-222-222-222-2-3-----5---7-----5-------------------------|
A|-5-----3---5-----0-000-000-000-0-5-----3---5-----5-555-555-555-5-----------|
E|---0-0---0---0-0-------------------0-0---0---0-0-3-333-333-333-3-----------|
P.M. * *   *   * *   *** *** *** *   * *   *   * *   *** *** *** * 

e|---------------------------------------------------------------------------|
B|---------------------------------------------------------------------------|
G|-2-----5---7---------------------2-----5---7-------------------------------|
D|-3-----5---7-----2---------------3-----5---7-------------------------------|
A|-5-----3---5-----2-222-222-222-2-5-----3---5-------------------------------|
E|---0-0---0---0-0-0-000-000-000-0---0-0---0---0-0---------------------------|
P.M. * *   *   * *   *** *** *** *   * *   *   * *

e|---------------------------------------------------------------------------|
B|---------------------------------------------------------------------------|
G|---------------------------------------------------------------------------|
D|-3-----------------------------2---------------2---------------------------|
A|-3-333-333-333-333-333-333-333-2-222-222-222-2-2-2--2--2-------------------|
E|-1-111-111-111-111-111-111-111-0-000-000-000-0-0-0--0--0-------------------|
P.M. *** *** *** *** *** *** ***   *** *** *** *   *  *  *

  Bridge Riff
e|---------------------------------------------------------------------------|
B|---------------------------------------------------------------------------|
G|-2~-5~---------------------------------------------------------------------|
D|-2~-5~-5~-3~---------------------------------------------------------------|
A|-0~-3~-5~-3~---------------------------------------------------------------|
E|-------3~-1~---------------------------------------------------------------|

  Solo Rhythm
e|---------------------------------------------------------------------------|
B|---------------------------------------------------------------------------|
G|---------------------------------------------------------------------------|
D|-2-----2---2-----5-----5---5-----------------------------------------------|
A|-0-0-0-0-0-0-0-0-3-3-3-3-3-3-3-3-5-----5---5-----3-----3---3---------------|
E|---------------------------------3-3-3-3-3-3-3-3-1-1-1-1-1-1-1-1-----------|
P.M. * *   *   * *   * *   *   * *   * *   *   * *   * *   *   * *

There you Go, I hope you enjoy it... The solo is played in 
Am over the Riff, so improvise there 
or figure it out yourself. =)

Intro (w/ Rhythm)   x4
Intro (w/ Harmony)  x4
Riff 1              x4
^^^ w/ Pick Scrape  X1
Riff 2              x4
Verse (1)           x4
Verse (2)           x2
Riff 2              x1
Riff 3              x1
Chorus              x1
Riff 2              x2
Riff 2 (w/ Harmony) x2
Verse (1)           x4
Verse (2)           x4
Riff 2              x1
Riff 3              x1
Chorus              x1
Bridge Riff         x4
Solo Rhythm         x16
Chorus              x2
Riff 2              x2
Outro

************************************

| /   slide up
| \   slide down
| h   hammer-on
| p   pull-off
| ~   vibrato
| +   harmonic
| x   Mute note
| b   Bend
| pb  Pre-bend
| br  Bend release
| pbr Pre-bend release
| brb Bend release bend

************************************

Tap to rate this tab
# A B C D E F G H I J K L M N O P Q R S T U V W X Y Z