Song name
# A B C D E F G H I J K L M N O P Q R S T U V W X Y Z

Misc Unsigned Bands - Yolanda Be Cool Dcup - We No Speak Americano tab

----------------------------------------------------------------------------
			     WE NO SPEAK AMERICANO - Yolanda Be Cool & DCUP
----------------------------------------------------------------------------

Well, here's an awesome tab for a cool techno song. The slides in it are very quick and
it's a heaps fun song to play once you get the hang of it. These are basically all the
"Main Riffs" in the song so have fun learning it. If you're really quick, you could 
probably play the notes in brackets. Peace! :)

Tabbed by: adsauzier
Email: andresauzier@yahoo.com.au

Tuning: Standard (EADGBe)

e|--6--6--6--(6)----6-6-6-6-6-(6)---X-8-6~--|
B|--------------6\---------------6\---------|
G|------------------------------------------|
D|------------------------------------------|
A|------------------------------------------|
E|------------------------------------------|


e|--6--6--6--(6)-----6-6-6-6-6-7-8-9--|
B|--------------6\--------------------|
G|------------------------------------|
D|------------------------------------|
A|------------------------------------|
E|------------------------------------|
Tap to rate this tab
# A B C D E F G H I J K L M N O P Q R S T U V W X Y Z