Song name
# A B C D E F G H I J K L M N O P Q R S T U V W X Y Z

Misc Unsigned Bands - Mike Salisbury - Analog Love chords

Highlighted       Show chord diagrams
Mike Salisbury - Analog Love

theymetcute.com

Intro:

e|----------------------------|
B|-3-------------3------------|
G|-4p2p0h2p0-----0------------|
D|-----------0h2--------------|
A|----------------------------|
E|-----------------3----------|

G
I think it's safe to call me by my full name now

C
I just found out she's leaving

G
I opened up my eyes to see the letters that she wrote for me

C
That said she's leaving

D                 C                G
You don't have to try and understand

        D            C                   G
But I'm walking home alone just like she planned

G
You shouldn't play that song so loud 

                                   C
I think I just figured out why I'm leaving

G                                                               C
You said that you liked artists and loved the things I drew but you next to me

D                 C                G
You don't have to try and understand

        D            C                   G
But I'm walking home alone just like she planned

Solo:

<> = harmonics

e|--------------------------------------------------|
B|-<12>----------<12>-------------------------------|
G|-<12>----------<12>-------------------------------|
D|----14-12-------14-12-------14-12-------14-12-----|
A|----------14----------14----------14-----------14-|
E|-------------------------<12>----------<12>-------|

e|-------------------------------------------------------------------------------|
B|-<12>-------12-----<12>-------12-12----12-----15-13-12-15-13-12-------12-<12>--|
G|-<12>-------12-----<12>-------12-12h14-12-----14-12-12-14-12-12-------12-<12>--|
D|------12h14-----14------12h14-------------14--------------------12h14----------|
A|-------------------------------------------------------------------------------|
E|-------------------------------------------------------------------------------|
Tap to rate this tab
# A B C D E F G H I J K L M N O P Q R S T U V W X Y Z