Song name
# A B C D E F G H I J K L M N O P Q R S T U V W X Y Z

Misc Unsigned Bands - Zero Distance - Time Of Dying tab

(/) Slide Up  (\) Slide Down  (h) Hammer On  (p) Pull Off  (b) Bend (r) Release (v) Vibrato


D|-----------------------------------------------------|
A|-----------------------------------------------------|
F|-----------------------------------------------------|
C|-----------------------------------------------------|
G|--0--3--0--3--0--3--5--3--0--3--0--3--0--3--5--3--2--|
C|--0--3--0--3--0--3--5--3--0--3--0--3--0--3--5--3--2--|



D|-----------------------------------------------------|
A|-----------------------------------------------------|
F|-----------------------------------------------------|
C|-----------------------------------------------------|
G|--0--3--0--3--0--3--5--3--0--3--0--3--0--3--5--3--2--|
C|--0--3--0--3--0--3--5--3--0--3--0--3--0--3--5--3--2--|



D|-----------------------------------------------------------------|
A|-----------------------------------------------------------------|
F|-----------------------------------------------------------------|
C|-----------------------------------------------------------------|
G|--0--0--0--3--3--3--0--0--0--3--3--3--0--0--0--5--5--5--3--3--3--|
C|--0--0--0--3--3--3--0--0--0--3--3--3--0--0--0--5--5--5--3--3--3--|



D|-----------------------------------------------------------------|
A|-----------------------------------------------------------------|
F|-----------------------------------------------------------------|
C|-----------------------------------------------------------------|
G|--0--0--0--3--3--3--0--0--0--3--3--3--0--0--0--5--5--5--3--3--3--|
C|--0--0--0--3--3--3--0--0--0--3--3--3--0--0--0--5--5--5--3--3--3--|



D|-----------------------------------------------------------------|
A|-----------------------------------------------------------------|
F|-----------------------------------------------------------------|
C|-----------------------------------------------------------------|
G|--0--0--0--3--3--3--0--0--0--3--3--3--0--0--0--5--5--5--3--3--3--|
C|--0--0--0--3--3--3--0--0--0--3--3--3--0--0--0--5--5--5--3--3--3--|



D|--------------------------------------------------------|
A|--------------------------------------------------------|
F|--------------------------------------------------------|
C|--------------------------------------------------------|
G|--0--0--0--2--0--3--2--0--2--0--2--0--2--0--3--2--0--0--|
C|--0--0--0--2--0--3--2--0--2--0--2--0--2--0--3--2--0--0--|



D|-----|
A|-----|
F|-----|
C|-----|
G|--5--|
C|--5--|
(let ring)


E|-----|
B|-----|
G|-----|
D|-----|
A|--7--|
E|--7--|
(let ring)


D|-----|
A|-----|
F|-----|
C|-----|
G|--5--|
C|--5--|
(let ring)


D|-----|
A|-----|
F|-----|
C|-----|
G|--0--|
C|--0--|
(let ring)


D|--------------------------------------------------------------------------|
A|--------------------------------------------------------------------------|
F|--------------------------------------------------------------------------|
C|--------------------------------------------------------------------------|
G|--3--2--4--3--2--3--2--4--2--4--2--0--3--2--4--3--2--4--2--4--2--4--2--0--|
C|--3--2--4--3--2--3--2--4--2--4--2--0--3--2--4--3--2--3--2--4--2--4--2--0--|



D|--------------------------------------------------|
A|--------------------------------------------------|
F|--------------------------------------------------|
C|--------------------------------------------------|
G|--0--3--0--3--0--3--5--3--0--3--0--3--0--3--5--2--|
C|--0--3--0--3--0--3--5--3--0--3--0--3--0--3--5--2--|
							http://www.guitartabcreator.com
Tap to rate this tab
 
# A B C D E F G H I J K L M N O P Q R S T U V W X Y Z