Song name
# A B C D E F G H I J K L M N O P Q R S T U V W X Y Z

Misc Unsigned Bands - Phone Calls From Home - When Its Over Now tab

----------------------------------------------------------------------------
              "When Itís Over Now" by Phone Calls From Home
----------------------------------------------------------------------------


Pre-Intro
E|---0-----0-----0h2---7-----5-----2------|
B|-----0-0---0-0-----0---0-0---0-0---0----|
G|----------------------------------------|   x2
D|----------------------------------------|
A|----------------------------------------|
D|----------------------------------------|
     * * * * * * * * * * * * * * * * *


Intro (Lead)
E|-------------------------------------------------------|
B|------------------------------------------------5/7/5--|
G|---------4-------4--2-1---------------4-------4--------|   x2
D|---2-4-2---2-4-2--------2h4-----2-4-2---2-4-2----------|
A|-------------------------------------------------------|
D|-------------------------------------------------------|


Intro (Rhythm)
E|-------------------------------------------------------------------|
B|-------------------------------------------------------------------|
G|---2-2-2-2-------------4-4-4-4---6-6-4-4---------------------------|
D|---2-2-2-2---2-2-2-2---4-4-4-4---6-6-4-4---------------------------|
A|---0-0-0-0---2-2-2-2---2-2-2-2---4-4-2-2---------------------------|
D|-------------0-0-0-0-----------------------------------------------|


Verse I (Rhythm)
E|-------------------------------------------------------------------|
B|-------------------------------------------------------------------|
G|---6----4----9-9-9-9-2-2-2-2-6-6-6-6-4-4-4-4-9-9-9-9-2-2-2-2-------|
D|---6----4----9-9-9-9-2-2-2-2-6-6-6-6-4-4-4-4-9-9-9-9-2-2-2-2-------|
A|---4----2----7-7-7-7-0-0-0-0-4-4-4-4-2-2-2-2-7-7-7-7-0-0-0-0-------|
D|-------------------------------------------------------------------|
               * * * * * * * * * * * * * * * * * * * * * * * *

Verse I (Lead)
E|-------------4-4-4-4-5-5-5-5-4-4-4-4-5-5-5-5-4-4-4-4-5-5-5-5-------|
B|--------------5-5-5-5-5-5-5-5-5-5-5-5-5-5-5-5-5-5-5-5-5-5-5-5------|
G|-------------------------------------------------------------------|
D|-------------------------------------------------------------------|
A|-------------------------------------------------------------------|
D|-------------------------------------------------------------------|
               ************************************************


Pre-Verse (Rhythm)
E|------------------|
B|------------------|
G|---4----2----4----|   x2
D|---4----2----4----|
A|---x----0----2----|
D|---4--------------|


E|---12--12--12-----|
B|-----12--12--12---|
G|------------------|   x8
D|------------------|
A|------------------|
D|------------------|


Chorus (Rhythm)
E|----------------------------------------|
B|----------------------------------------|
G|---2-2-2-2-----------4-4-4-4--6-6-6-6---|   x2
D|---2-2-2-2--2-2-2-2--4-4-4-4--6-6-6-6---|
A|---0-0-0-0--2-2-2-2--2-2-2-2--4-4-4-4---|
D|------------0-0-0-0---------------------|

E|-----------------------------------------------------|
B|-----------------------------------------------------|
G|---2-2-2-2--6-6-6-6--4-4-4-4--4-4-4-4--2-2-2-2--4----|
D|---2-2-2-2--6-6-6-6--4-4-4-4--4-4-4-4--2-2-2-2--4----|
A|---0-0-0-0--4-4-4-4--2-2-2-2--x-x-x-x--0-0-0-0--2----|
D|------------------------------4-4-4-4----------------|


Chorus (Lead)
E|-----------------------------------------|
B|-----------------------------------------|
G|---6--------9--------11-------16---11----|   x2
D|---x--------x--------x--------x-----x----|
A|---4--------7--------9--------14----9----|
D|-----------------------------------------|

E|-----------------------------------------------------|
B|-----------------------------------------------------|
G|---6--------9--------11--------16------6--------11---|
D|---x--------x--------x---------x-------x--------x----|
A|---4--------7--------9---------14------4--------9----|


Repeat; Intro


Verse II (Rhythm)
E|-----------------------------------------------------|
B|-----------------------------------------------------|
G|---6----4----9-9-9-9--2-2-2-2--6---8---9---4---2-----|
D|---6----4----9-9-9-9--2-2-2-2--x---x---x---x---2-----|
A|---4----2----7-7-7-7--0-0-0-0--4---6---7---2---0-----|
D|-----------------------------------------------------|
               * * * *  * * * *


Verse II (Lead)
E|--4-4-4-4-5-5-5-5----|
B|---5-5-5-5-5-5-5-5---|
G|---------------------|
D|---------------------|
A|---------------------|
D|---------------------|
    ****************


Repeat; Pre-Verse
        Chorus


Bridge (Rhythm/Lead)
E|------------------------------------------------------|
B|------------------------------------------------------|
G|------------4-4-2------6-4-2---6-4-2---2---4--2---4---|
D|---2-2-2----4-4-2----2-6-4-2-2-6-4-2---2-2-4--2-2-4---|
A|---2-2-2----2-2-0----2-4-2-0-2-4ó2-0---0-2-2--0-2-2---|
D|---0-0-0-------------0-------0-----------0------0-----|
                       * * * * * * * *

Repeat; Chorus
        Intro


E|------------------|
B|------------------|
G|---6----4----2----|
D|---6----4----2----|
A|---4----2----0----|
D|------------------|
Tap to rate this tab
 
# A B C D E F G H I J K L M N O P Q R S T U V W X Y Z