Song name
# A B C D E F G H I J K L M N O P Q R S T U V W X Y Z

Misc Unsigned Bands - Hudson - Against The Grain tab

Band: Hudson
Song: Against the Grain
      http://vimeo.com/31939621

Tabbed by: ishidableach (at) gmail [dot] com

Tuning: Standard (EADGBe), capo on 3rd

Notes: 
  * This song isn't played with a capo in the song, but I thought it was
    easier to use one, so that's how I tabbed it.
       
  * The tab at first glance looks like it's long, but you will find that
    a lot of it repeats and is not hard at all to play.

  * And as always, corrections are welcomed. If you want a correction to 
    be shown, you're better off emailing me (located above).



Verse:
e|---------------------------------|
B|---------------------------------|
G|---------------------------------|
D|---2---2---2---2---2---3---2---2-|
A|-3---3---3---3---3---3---3---3---|
E|---------------------------------|

e|---------------------------------|
B|---------------------------------|
G|---------------------------------|
D|---2---2---2---2---2---3---2---2-|
A|---------------------------------|
E|-3---3---3---3---3---3---3---3---|

e|---------------------------------|
B|---------------------------------|
G|---------------------------------|
D|-----------------------2---0---2-| x2
A|---3---3---3---3---3---3---3---3-|
E|-1---1---1---1---1---1---1---1---|


Interlude:
e|---------------------------------|
B|---------------------------------|
G|---------------------------------|
D|---2---2---2---2---0---0---0---0-|
A|-3---3---3---3-------------------|
E|-----------------3---3---3---3---|

e|---------------------------------|
B|---------------------------------| Not sure
G|---------------------------------| about
D|---0---0---0---0---0---0---0---0-| this
A|---------------------------------| part
E|-1---1---1---1---3---3---3---3---|

e|---------------------------------|
B|---------------------------------|
G|---------------------------------|
D|-----------------------2---0---2-| x2
A|---3---3---3---3---3---3---3---3-|
E|-1---1---1---1---1---1---1---1---|


Chorus:
e|---------------------------------|
B|---------------------------------|
G|---------------------------------|
D|---2---2---2---2---2---2---2---2-|
A|-3---3---3---3---3---3---3---3---|
E|---------------------------------|

e|---------------------------------|
B|---------------------------------|
G|---------------------------------|
D|---2---2---2---2---2---2---2---2-|
A|---------------------------------|
E|-3---3---3---3---3---3---3---3---|

e|---------------------------------|
B|---------------------------------|
G|---------------------------------|
D|---------------------------------|
A|---3---3---3---3---3---3---3---3-|
E|-1---1---1---1---1---1---1---1---|

e|---------------------------------|
B|---------------------------------|
G|---------------------------------|
D|---------------------------------|
A|---5---5---5---5---5---5---5---5-|
E|-3---3---3---3---3---3---3---3---|


Preverse:
e|---------------------------------|
B|---------------------------------|
G|---------------------------------|
D|---2---2---2---2---2---2---2---2-|
A|-3---3---3---3---3---3---3---3---|
E|---------------------------------|


Bridge Part I:
e|---------------------------------|
B|---------------------------------|
G|---------------------------------|
D|---------------------------------|
A|---3---3---3---3---5---5---5---5-|
E|-1---1---1---1---3---3---3---3---|

e|---------------------------------|
B|---------------------------------|
G|---------------------------------|
D|---2---3---2---0---2---3---2---0-|
A|-3---3---3---3---3---3---3---3---|
E|---------------------------------|


Bridge Part II:
e|---------------------------------|
B|---------------------------------|
G|---------------------------------|
D|---------------------------------|
A|---3---3---3---3---5---5---5---5-|
E|-1---1---1---1---3---3---3---3---|




[Verse]
 I'm asking questions time and time again
 In a race that never ever ends
 Hanging from my limbs in the swaying breeze
 I'm hoping that I gotta let it go

[Interlude]
 Oooooooooh
 Oooooooooh

[Chorus]
 In my life the good and bad come and go
 Highs and lows are often all that show
 Know it's time to go against the grain
 Or it will kill me down below

 To live in comfort and know its warm embrace
 Reminds me only to quicken up the pace
 Know it's time to go against the grain
 Or it will kill me down below

[Preverse]

[Verse]
 Singing a song never heard
 All of a sudden I know every word
 And I know that there's no direction home
 It's right here where all the wild things grow

[Chorus]
 In my life the good and bad come and go
 Highs and lows are often all that show
 Know it's time to go against the grain
 Or it will kill me down below

 To live in comfort and know its warm embrace
 Reminds me only to quicken up the pace
 Know it's time to go against the grain
 Or it will kill me down below

Order:
  Verse     x2
  Interlude x2
  Chorus    x2
  Preverse  x2
  Verse     x2
  Chorus    x2
  Bridge I  x3
  Bridge II
  Intro     x3
Tap to rate this tab
# A B C D E F G H I J K L M N O P Q R S T U V W X Y Z