Song name
# A B C D E F G H I J K L M N O P Q R S T U V W X Y Z

Misc Unsigned Bands - Tustric - Reject tab

Artist: Tustric (was DISTRICT 24, read info section on profile!)
Song: Reject
Album: N/A (in progress)

|--------------------------------------|
|--------------------------------------|
|--------------------------------------|
|--7-5---4-2---------------------------|
|5-----5----------3X-------------------|
|--------------------------------------|

After 3 times:

|--------------------------------------|
|--------------------------------------|
|--------------------------------------|
|--7-5---4-2---2-0---------------------|
|5-----5-----4-------------------------|
|--------------------------------------|

Verse: Slight P.M throughout
|--------------------------------------|
|--------------------------------------|
|--------------------------------------|
|--7----5----4---4---------------------|
|5----5----5---5------X2---------------|
|--------------------------------------|

|--------------------------------------|
|--------------------------------------|
|--------------------------------------|
|--5----3----2---2---------------------|
|3----3----3---3---X2------------------|
|--------------------------------------|

Chorus: (each word in lyrics, play one note)
|--------------------------------------|
|--------------------------------------|
|--------------------------------------|
|--7-5---4-2---2-0---------------------|
|5-----5-----4-------x4----------------|
|--------------------------------------|

Solo:
|--------------------------------------|
|--------------------------------------|
|--------------------------------------|
|--7---5----4----4----4----4-----------|
|5---5----5----5----4----4-------------|
|--------------------------------------|

|-----------------------------------------|
|---------------------------------------1-|
|------------------0---0------0-----0---0-|
|--4---4---4---4------------2-----2-----2-|
|2---2---0---0------------3-----3-------3-|
|----------------3---3--------------------|

LYRICS COMING IN NEXT UPDATE

Thanks.
Tap to rate this tab
# A B C D E F G H I J K L M N O P Q R S T U V W X Y Z