Song name
# A B C D E F G H I J K L M N O P Q R S T U V W X Y Z

Misc Unsigned Bands - Protect The Mona Lisa - Broken Arrow tab

e|---------------------------------------------------------------------------|
B|--------------7------------------------------------------------------------|
G|-------7-9/12--------------------------------------------------------------|
D|5-7-9----------------------------------------------------------------------|
A|---------------------------------------------------------------------------|
D|---------------------------------------------------------------------------|

e|-0--0--0--0--0--0--0--0----------------------------------------------------|
B|-7--7--7--7--5--5--5--5----------------------------------------------------|
G|-7--7--7--7--7--7--7--7----------------------------------------------------|
D|-5--5--5--5--5--5--5--5----------------------------------------------------|
A|-5--5--5--5--5--5--5--5----------------------------------------------------|
D|-5--5--5--5--5--5--5--5----------------------------------------------------|
Tap to rate this tab
 
# A B C D E F G H I J K L M N O P Q R S T U V W X Y Z