Song name
# A B C D E F G H I J K L M N O P Q R S T U V W X Y Z

Misc Unsigned Bands - Painscale - A Tale Of Romance And Goodbye tab

this is my first tab
feel free to comment or correct if something IS wrong


A Tale of Romance and Goodbye
artist: painscale


intro:
 E|------------------------------------------|
 B|------------------------------------------|
 G|------------------------------------------| GUITAR 1 PLAY THIS 2X THEN;
 D|------------------------------------------|
 A|---3-5---5-7---7-8--7-5----3--------------|
 D|-00----00---00----------------------------|
    ..    ..   ..
 E|------------------------------------------|
 B|------------------------------------------|
 G|------------------------------------------|   PLAY THIS W/ GUITAR 2 2X
 D|------------------------------------------|
 A|---10-12---12-14--14-16--14-16--14-12--10-|
 D|-00-----00------00------------------------|
    ..     ..      ..
PAKINGGAN NYO NLNG KNG ILANG BESES INULIT UNG INTRO...

VERSE:

 E|--------------------------------------------|
 B|--------------------------------------------|
 G|--------------------------------------------|
 D|--------------------------------------------|
 A|---3--5--7---5--3------3--5--7--5-----------|
 D|-00--0--0---0--0-----00--0--0--0--3*--------|
    ..  .  .   .  .     ..  .  .  .
CHORUS:

    Eb  F    G    A  Bb A
 E|--------------------------------------------|
 B|--------------------------------------------|
 G|--------------------------------------------|
 D|1~1--3~3--5~5--7~787------------------------|
 A|1~1--3~3--5~5--7~787------------------------|
 D|1~1--3~3--5~5--7~787------------------------|
     .    .    .   
BRIDGE:

 E|--------------------------------------------|
 B|--------------------------------------------|
 G|--------------------------------------------|
 D|0000-1~-1111--3~-3333-5~6~5-----------------|
 A|0000-1~-1111--3~-3333-5~6~5-----------------|
 D|0000-1~-1111--3~-3333-5~6~5-----------------|

 E|-----------------------------------------------------------------------|
 B|-----------------------------------------------------------------------|
 G|-----------------------------------------------------------------------|
 D|11111--33333--5555565--------------------------------------------------|
 A|11111--33333--5555565--------------------------------------------------|
 D|11111--33333--5555565--------------------------------------------------|
   .. .   .. .   .. .

BRIDGE 2:

 E|--------------------------------------------|
 B|--------------------------------------------|
 G|----5-4-3------7-6-5------------------------|
 D|--------------------------------------------|
 A|--------------------------------------------|
 D|-000--------000-----------------------------|

PAKINGGAN NYO NLNG KUNG ILANG BESES UULITIN UNG PART NA TO...


E|--------------------------------------------|
B|--------------------------------------------|
G|--------------------------------------------|
D|1~--3~--5~----------------------------------|
A|1~--3~--5~----------------------------------|
D|1~--3~--5~----------------------------------|


DI KO PA NASIPRA UNG ADLIB..HANGGANG D2 NA LNG MUNA ENJOY
Tap to rate this tab
 
# A B C D E F G H I J K L M N O P Q R S T U V W X Y Z