Song name
# A B C D E F G H I J K L M N O P Q R S T U V W X Y Z

Misc Unsigned Bands - Ninth Kingdom - A Storm On The Horizon tab

A Storm On The Horizon guitar solos:
hear it at www.ninthkingdom.org

Amblividon's guitar solo 1 and 2 at 5:01 and later at 6:35

Down Tune 1 1/2 steps

6-C#    3-E
5-F#    2-G#
4-B     1-C#

|------------------------15------15--20~|-20p15------15----------------|
|--------------------16------16---------|--------20------20--15--16p15-|
|-------------17-17---------------------|------------------------------|
|---------17----------------------------|------------------------------|
|-15--18--------------------------------|------------------------------|
|---------------------------------------|------------------------------|

                                           a.h.              a.h.
|---------------------------------|--------------------------------------|
|---------------------------------|--------------------------------------|
|-17\12~-16~~-17-16h17p16p13\12~~-|-13-12p8h12\<8>~~-12--8h12h8\<4b>(5)--|
|---------------------------------|--------------------------------------|
|---------------------------------|--------------------------------------|
|---------------------------------|--------------------------------------|

|---8-----7---|--11-----10---|---15-------14----|---20-------19----|
|-------------|--------------|------------------|------------------|
|-5---5-4---4-|8----8-7----7-|12----12-11----11-|17----17-16----16-|
|-------------|--------------|------------------|------------------|
|-------------|--------------|------------------|------------------|
|-------------|--------------|------------------|------------------|

                              a.h.
|-20p16p----16----------------------|---------------------|----------|
|--------20----20-15-16p15----------|---------------------|----------|
|--------------------------17-<16~>-|-16h17p16----16------|----------|
|-----------------------------------|----------18----18-17|-18-17-15-|
|-----------------------------------|---------------------|----------|
|-----------------------------------|---------------------|----------|

|------------|-20p16----16-------20b(21)r(20)-19b(20)~-|-19p16----------16-|
|------------|-------20----20-16-----------------------|-------18-15-18----|
|------------|-----------------------------------------|-------------------|
|------------|-----------------------------------------|-------------------|
|18-17-15-14-|-----------------------------------------|-------------------|
|------------|-----------------------------------------|-------------------|

|---------------|-----------------------------------15-16-15-16-|
|20-15h20p15\12-|13-12-13--16-15-16--20-16-15-16--16------------|
|---------------|-------------------------------17--------------|
|---------------|-----------------------------------------------|
|---------------|-----------------------------------------------|
|---------------|-----------------------------------------------|

                                        T                 T
|19-16-15-16-20-16-15-16|19p16p15h16h19-20p19p16p15h16h19p22p19p16p15h16-|
|-----------------------|------------------------------------------------|
|-----------------------|------------------------------------------------|
|-----------------------|------------------------------------------------|
|-----------------------|------------------------------------------------|
|-----------------------|------------------------------------------------|

    T
|h1923-|
|------|
|------|
|------|
|------|
|------|

|------------------|------------------|------------------|-----------------|
|13-15-16-13-15-16-|12-13-15-12-13-15-|15-16-18-15-16-18-|13-15-16-13-15-16|
|------------------|------------------|------------------|-----------------|
|------------------|------------------|------------------|-----------------|
|------------------|------------------|------------------|-----------------|
|------------------|------------------|------------------|-----------------|

|-----------------------------|-------------------------20b(22)r(20)-19b(20)|
|20p16------------------------|-----------------20p16-----------------------|
|------17-19p16---------------|--------19p16----------17--------------------|
|---------------17-21p17------|21p17----------17----------------------------|
|------------------------18---|------18-------------------------------------|
|---------------------------20|---------------------------------------------|


solo at 6:35
|---------------------------|-------------------------------|
|---------------------------|-------------------------------|
|-/4b(5)~~---/8--7~~~12--10-|/17-17--19--20--22-20--19--20~-|
|---------------------------|-------------------------------|
|---------------------------|-------------------------------|
|---------------------------|-------------------------------|

|---------------------------------|4h8p4h---4-------------|
|---------------------------------|-------8---8-3-4p3-----|
|20/22-22--19/20-20--17-19-19--16~|-------------------5-4-|
|---------------------------------|-----------------------|
|18/20-20--17/18-18--15/17-17--14~|-----------------------|
|---------------------------------|-----------------------|

|----------------------------|-------------------------|-8p3---11p8---10p7--|
|----------------------------|--------------------8p4--|----4------8------9-|
|----------------------------|--------------7p4-------5|--------------------|
|6-5-3-5p3-----3h5p3---------|-------10p5-------5------|--------------------|
|----------6-5-------6-5-3-2-|10p6--------6------------|--------------------|
|----------------------------|-----8-------------------|--------------------|

|-/22~22h23p22p20-----------------------------|-----------------------|
|-----------------21-20-----------------------|15h16p15---------------|
|-----------------------20-19-17h19p17--------|---------17-16---------|
|--------------------------------------18-17~-|---------------18-17-15|
|---------------------------------------------|-----------------------|
|---------------------------------------------|-----------------------|

|---------------|-----------------------------|----------------------------|
|---------------|-----------------------------|-------------------15h16p15-|
|---------------|-------------------16h17p16~-|----------16-17-16----------|
|---------------|----------15-17-18-----------|-18-17-18-------------------|
|18-17-15-14/15~|-15-17-18--------------------|----------------------------|
|---------------|-----------------------------|----------------------------|

|------------------15-16-15-16-16-15-15-19|-16-16-15-15-20-16-16-15-15-22-23-|
|---------15-16-15------------------------|----------------------------------|
|17-16-17---------------------------------|----------------------------------|
|-----------------------------------------|----------------------------------|
|-----------------------------------------|----------------------------------|
|-----------------------------------------|----------------------------------|

|-------------------------|------------------------|------------|
|-----------------20202020|--------18181818--------|--------18~~|
|-1717171720202020--------|20202020--------19191919|16161616----|
|-------------------------|------------------------|------------|
|-------------------------|------------------------|------------|
|-------------------------|------------------------|------------|

|11p8-----|------10-13-/10p7--------7-10-|
|-----8---|----12------------9----9------|
|-------8~|-/13----------------10--------|
|---------|------------------------------|
|---------|------------------------------|
|---------|------------------------------|

                                            a.h.    a.h.
|8h10p8-4-8-4h8p4---4-----------------------------|----------------------|
|-----------------8---8-4-8-4h8p4/3-4-3-----------|----------------------|
|---------------------------------------5-4-<5>~~-|-<3>whammy bar pull up|
|-------------------------------------------------|----------------------|
|-------------------------------------------------|----------------------|

|------------------------|
|------------------------|
|<3> whammy bar dive down|
|------------------------|
|------------------------|
|------------------------|

 2007 Ninth Kingdom
Tap to rate this tab
# A B C D E F G H I J K L M N O P Q R S T U V W X Y Z