Song name
# A B C D E F G H I J K L M N O P Q R S T U V W X Y Z

Misc Unsigned Bands - Pioneer - Game tab

-------------------------------------------------------------------------------
			     Game - Pioneer
-------------------------------------------------------------------------------
Tabbed by:
Email:

Tuning:Drop D

VERSEEEE.

e|---------------------------------------------------------------------------|
B|---------------------------------------------------------------------------|
G|---------------------------------------------------------------------------|
D|-----4----3----4----3----4----3----4----3----3333--------------------------|
A|-----2----3----2----3----2----3----2----3----5555--------------------------|
D|----------3---------3---------3---------3----------------------------------|

e|-----------------------------------------------------0------------------------|
B|-----------------------------------------------------0------------------------|
G|-----------------------------------------------------0------------------------|
D|-----4----3-----2-----3-----4----3----4----3----1-----------------------------|
A|-----2----3-----4-----3-----2----3----2----3----1-----------------------------|
D|----------3-----------3----------3---------3----1-----------------------------|

BREAKDOWN/CHORUS THINGY!

e|-------------------------------------------------------------------------------|
B|---------4---------4--4---------4---------4--4---------------------------------|
G|---------6b--------6b-6b--------6b--------6b-6b--------------------------------|
D|-----444-------444----------444-------444--------------------------------------|
A|-----444-------444----------444-------444--------------------------------------|
D|-----444-------444----------444-------444-----------------X2-------------------|

e|---------------------------------------------------------------------------|
B|---------3--------3--3----------3--------3--3------------------------------|
G|---------5b-------5b-5b---------5b-------5b-5b-----------------------------|
D|-----333------333-----------333------333-----------------------------------|
A|-----333------333-----------333------333-----------------------------------|
D|-----333------333-----------333------333-------------X2--------------------|

BREAKDOWN/OUTRO THINGY.

e|---------------------------------------------------------------------------------|
B|---------------------------------------------------------------------------------|
G|---------------------------------------------------------------------------------|
D|----3----5----6----0-------------------------------------------------------------|
A|----3----5----6----0-------------------------------------------------------------|
D|----3----5----6----0-------------------------------------------------------------|



************************************

| /   slide up
| \   slide down
| h   hammer-on
| p   pull-off
| ~   vibrato
| +   harmonic
| x   Mute note
| b   Bend
| pb  Pre-bend
| br  Bend release
| pbr Pre-bend release
| brb Bend release bend

************************************
Tap to rate this tab
# A B C D E F G H I J K L M N O P Q R S T U V W X Y Z