Song name
# A B C D E F G H I J K L M N O P Q R S T U V W X Y Z

Misc Unsigned Bands - Empires Erased - 1-2-3 Partyy tab

A little song really fun to play once you get to know it and really easy to learn btw.

Tuning: drop D


~Rhythm~




Intro 


e|-------------------------------------------------------------------------|
B|-------------------------------------------------------------------------|
G|-------------------------------------------------------------------------|
D|00000000666666663333333333341--------------------------------------------|
A|00000000666666663333333333341--------------------------------------------|
D|00000000666666663333333333341--------------------------------------------|
                                                                         (x2)
e|-------------------------------------------------------------------------|
B|-------------------------------------------------------------------------|
G|-------------------------------------------------------------------------|
D|0-000-06-666-63-333-3333--41---00000000666666663333333333341-------------|
A|0-000-06-666-63-333-3333--41---00000000666666663333333333341-------------|
D|0-000-06-666-63-333-3333--41---00000000666666663333333333341-------------|

Pre verse

e|-------------------------------------------------------------------------|
B|-------------------------------------------------------------------------|
G|-------------------------------------------------------------------------|
D|0--33341------0----33341---------0--33341---------0----------------------|
A|0--33341------0----33341---------0--33341---------0----------------------|
D|0--33341------0----33341---------0--33341---------0----------------------|


Verses

e|-------------------------------------------------------------------------|
B|-------------------------------------------------------------------------|
G|-------------------------------------------------------------------------|
D|xx0xxx0xxx6xxx6xxx3xxx3xxx3xxx3------------------------------------------|
A|xx0xxx0xxx6xxx6xxx3xxx3xxx3xxx3------------------------------------------|
D|xx0xxx0xxx6xxx6xxx3xxx3xxx3xxx3------------------------------------------|
                                                                         (x2)

e|-------------------------------------------------------------------------|
B|-------------------------------------------------------------------------|
G|-------------------------------------------------------------------------|
D|xx0xxx0xxx6xxx6xxx3xxx3-3--33-33-----------------------------------------|
A|xx0xxx0xxx6xxx6xxx3xxx3-3--33-33-----------------------------------------|
D|xx0xxx0xxx6xxx6xxx3xxx3-3--33-33-----------------------------------------|
                                                                         (x2)


Pre Chorus

e|-------------------------------------------------------------------------|
B|-------------------------------------------------------------------------|
G|-------------------------------------------------------------------------|
D|0------------0--------------0--------------0-----------------------------|
A|0------------0--------------0--------------0-----------------------------|
D|0------------0--------------0--------------0-----------------------------|

Choruses

e|-------------------------------------------------------------------------|
B|-------------------------------------------------------------------------|
G|-------------------------------------------------------------------------|
D|000000006666666633333333333341-------------------------------------------|
A|000000006666666633333333333341-------------------------------------------|
D|000000006666666633333333333341-------------------------------------------|
                                                                         (x2)

e|-------------------------------------------------------------------------|
B|-------------------------------------------------------------------------|
G|-------------------------------------------------------------------------|
D|0-000-06-666-63-333-3333--41---000000006666666688888888888888------------|
A|0-000-06-666-63-333-3333--41---000000006666666688888888888888------------|
D|0-000-06-666-63-333-3333--41---000000006666666688888888888888------------|

Bridge

e|-------------------------------------------------------------------------|
B|-------------------------------------------------------------------------|
G|-------------------------------------------------------------------------|
D|0x00x0-0x00x60x0030x0010-------------------------------------------------|
A|0x00x0-0x00x60x0030x0010-------------------------------------------------|
D|0x00x0-0x00x60x0030x0010-------------------------------------------------|
                                                                         (x2)

~Lead~


Intro and choruses

e|-------------------------------------------------------------------------|
B|---3------3-------3-------3----------------------------------------------|
G|-------------------------------------------------------------------------|
D|0------0------0-------0--------------------------------------------------|
A|-------------------------------------------------------------------------|
D|-------------------------------------------------------------------------|
( The 3rd time on, don;t pull off your finger)


For the verses,the pre verse and the bridge, just imitate the rhythm guitar


--------------|
Song Order:   |
- Intro       |
- Pre verse   |
- Verse       |
- Pre chorus  |
- Chorus      |
- Pre verse   |
- Verse       |
- Pre chorus  |
- Chorus      |
- Bridge      |
- Chorus x2   |
    End
                              THAT'S IT.
                                                                           
Tap to rate this tab
# A B C D E F G H I J K L M N O P Q R S T U V W X Y Z