Song name
# A B C D E F G H I J K L M N O P Q R S T U V W X Y Z

Misc Unsigned Bands - Pioneer - Bottom Of The Lake tab

-------------------------------------------------------------------------------
			    Bottom Of The Lake - Pioneer
-------------------------------------------------------------------------------
Tabbed by:
Email:

Tuning:Drop D

INTROOO!!!!!!!!
e|---------------------------------------------------------------------------|
B|---------------------------------------------------------------------------|
G|---------------------------------------------------------------------------|
D|----3p0----00----000----3p0----1p0----6p0----5p0---------------------------|
A|----3p0----00----000----3p0----1p0----6p0----5p0---------------------------|
D|----3p0----00----000----3p0----1p0----6p0----5p0-------X4------------------|

VERSE!!!!

e|---------------------------------------------------------------------------|
B|---------------------------------------------------------------------------|
G|---------------------------------------------------------------------------|
D|----00000000----33333333----11111111----66666666---------------------------|
A|----00000000----33333333----11111111----66666666---------------------------|
D|----00000000----33333333----11111111----66666666----X4---------------------|

CHORUS!
e|---------------------------------------------------------------------------|
B|---------------------------------------------------------------------------|
G|---------------------------------------------------------------------------|
D|-----3----1----0-----------------------------------------------------------|
A|-----3----1----0-----------------------------------------------------------|
E|-----3----1----0-----X2----------------------------------------------------|


ENDING RHYTHM GUITAR.
e|---------------------------------------------------------------------------|
B|---------------------------------------------------------------------------|
G|---------------------------------------------------------------------------|
D|----00----22---------3p0-0000000-3333-5555---------------------------------|
A|----00----22---------3p0-0000000-3333-5555---------------------------------|
E|----00----22---X4----3p0-0000000-3333-5555---X8? maybe..-------------------|



************************************

| /   slide up
| \   slide down
| h   hammer-on
| p   pull-off
| ~   vibrato
| +   harmonic
| x   Mute note
| b   Bend
| pb  Pre-bend
| br  Bend release
| pbr Pre-bend release
| brb Bend release bend

************************************
Tap to rate this tab
# A B C D E F G H I J K L M N O P Q R S T U V W X Y Z