Song name
# A B C D E F G H I J K L M N O P Q R S T U V W X Y Z

Misc Unsigned Bands - Cultura Profetica - La Complicidad tab

This is the intro to La complicidad by Cultura Profetica. First attempt at doing this 
song, but here is what I've got so far..
Played with a clean jazzy tone.

Any comments email: shillout@live.com

Intro :

Lead

e|----------------------------------9--------------10/12\10~------------|
B|------------------------------------10-----------10/12\10~------------|
G|------6---------7/9\7~-------9h11------9/11~--------------------------|
D|--------7-------7/9\7~------------------------------------------------|
A|-7h9------9~----------------------------------------------------------|
E|----------------------------------------------------------------------|

e|----------------------------------------------------------------------|
B|-----------------------------10-9p7-----10-9p7------------------------|
G|------6---------7/9\7~-------------9~---------9~----------------------|
D|--------7-------7/9\7~------------------------------------------------|
A|-7h9------9~----------------------------------------------------------|
E|----------------------------------------------------------------------|
Tap to rate this tab
# A B C D E F G H I J K L M N O P Q R S T U V W X Y Z